PrimaNota.ru - самый крупный в мире бесплатный архив песенных текстов, аккордов, табулатур и нот


Minks - Funeral Song - таба, видео

Регистрация Запомнить меня
Войти через:  Facebook Google Twitter Vk Yandex Mail.ru

Minks - Funeral Song - таба, видео

Печатать
Просмотров: 82
Minks - Funeral Song
Track 5 from the album "By Th Hedge" (Captured Tracks 2011).

Tabbed by Isaac Murguia, November 2015.
Originally uploaded to Ultimate-Guitar.com
Contact: www.youtube.com/user/Goadiroth

INTRO/VERSE:
e|-0----0----0----0----|
B|-2----2----2----2----|
G|-2----1----2----1----|
D|-0----2----0----2----|
A|-x----0----x----0----|
E|-2---------2---------|

CHORUS:
  Lead
e|-------------------------------|---------------------------------|
B|-------------------------------|---------------------------------|
G|-11--11-9-11--11-9-11-9--11--9-|---------------------------------|
D|-------------------------------|-11-11-11-9--999--11-11-11-9--99-|
A|-------------------------------|---------------------------------|
E|-------------------------------|---------------------------------| [x2]

e|---------------------------------|---------------------------------|
B|----------------------10---------|---------------------------------|
G|-11--11-9-11--11-9-11----11--999-|---------------------------------|
D|---------------------------------|-11-11-11-9--999--11-11-11-9--99-|
A|---------------------------------|---------------------------------|
E|---------------------------------|---------------------------------| [x2]
  Rhythm
e|-0--000--0000--0--000-|-0000-000--0000-000-|
B|-2--202--2020--2--000-|-2220-000--2220-000-|
G|-2--222--2222--2--222-|-1111-111--1111-111-|
D|-0--000--0000--0--000-|-2222-222--2222-222-|
A|-x--xxx--xxxx--x--xxx-|-0000-000--0000-000-|
E|-2--222--2222--2--222-|--------------------| [x4]

Repeat VERSE [x2]
Repeat CHORUS
Repeat VERSE [x2]
Repeat CHORUS

BRIDGE: (listen to song for strumming pattern)
e|-2-22-22-222222--4-44-44-444444--|
B|-3-33-33-333333--5-55-55-555555--|
G|-4-44-44-444444--6-66-66-666666--|
D|-4-44-44-444444--6-66-66-666666--|
A|-2-22-22-222222--4-44-44-444444--|
E|---------------------------------| [x3]

e|-2-22-22-222222--444444xx-222222xx-|
B|-3-33-33-333333--555555xx-333333xx-|
G|-4-44-44-444444--666666xx-222222xx-|
D|-4-44-44-444444--666666xx-000000xx-|
A|-2-22-22-222222--444444xx----------|
E|-----------------------------------|

CHORUS VARIATION:
  Lead
e|---------------------------------|---------------------------------|
B|---------------------------------|---------------------------------|
G|-11--11-9-11--11-9-11-9--11--999-|---------------------------------|
D|---------------------------------|-11-11-11-9--999--11-11-11-9--99-|
A|---------------------------------|---------------------------------|
E|---------------------------------|---------------------------------| [x4]
  Rhythm
e|-0--000--0000--0--000-|-0000-000--0000-000-|
B|-2--202--2020--2--000-|-2220-000--2220-000-|
G|-2--222--2222--2--222-|-1111-111--1111-111-|
D|-0--000--0000--0--000-|-2222-222--2222-222-|
A|-x--xxx--xxxx--x--xxx-|-0000-000--0000-000-|
E|-2--222--2222--2--222-|--------------------| [x4]

OUTRO:
  Lead 1
e|---------------------------------|---------------------------------|
B|---------------------------------|---------------------------------|
G|-11--11-9-11--11-9-11-9--11--999-|---------------------------------|
D|---------------------------------|-11-11-11-9--999--11-11-11-9--99-|
A|---------------------------------|---------------------------------|
E|---------------------------------|---------------------------------| [x2]
  Lead 2
e|-------------------|
B|-------------------|
G|-------------------|
D|-11--11-9-11--11-9-|
A|-------------------|
E|-------------------| [x8]
  Rhythm
e|-0--000--0000--0--000-|-0000-000--0000-000-|
B|-2--202--2020--2--000-|-2220-000--2220-000-|
G|-2--222--2222--2--222-|-1111-111--1111-111-|
D|-0--000--0000--0--000-|-2222-222--2222-222-|
A|-x--xxx--xxxx--x--xxx-|-0000-000--0000-000-|
E|-2--222--2222--2--222-|--------------------| [x4]

End. Please rate! :D
Добавлено: 11.06.2016
Другие материалы по этой песне:
  • Аккорды и текст

Страница создана 11.06.2016
http://primanota.ru/minks/funeral-song-chords.htm
Привет, Гость.
Предлагаем пройти революционный курс по гитаре.
Подарок от PrimaNota.Ru, забирай!