PrimaNota.ru - самый крупный в мире бесплатный архив песенных текстов, аккордов, табулатур и нот


Ministri - Una Palude - таба, видео

Регистрация Запомнить меня
Войти через:  Facebook Google Twitter Vk Yandex Mail.ru

Ministri - Una Palude - таба, видео

Печатать
Просмотров: 105
-------------------------------------------------------------------------------
                            Una Palude - Ministri (Acoustic)
-------------------------------------------------------------------------------
Tabbed by: Borto1412 (Andrea Bortolozzo)
E-mail: bortolozzo.andrea@gmail.com

Tuning: Standard (E A D G B E)
BPM: ~140 BPM

Acoustic version of "Una Palude", by Ministri.

IMPORTANT: "/" is "Strum Down" , "\" is "Strum Up"


Refrain

e|10---7---5---7---7--5-|10---7---5---7---7--5-|---------3p0--2-----2---3---------------3p0--2-----2---3---5--|
B|--0---0---0---0---0--0|--0---0---0---0---0--0|-------1----------1-----------1-------1----------1------------|
G|---0---0---0---0------|---0---0---0---0------|-----0----------------------0-------0------------------------0|
D|----------------------|----------------------|---2--------2---2-----2---2-------2--------2---2-----2---2----|
A|----------------------|----------------------|-0-------0----0---------0-------0-------0----0---------0------|
E|----------------------|----------------------|--------------------------------------------------------------|



Chorus
      
      Every chord in the chorus lasts 2 bars (if played 140BPM, one bar at 70BPM).
      Last D before back to the Refrain, in the strumming, ends at the strum down in parenthesis) 
      / : Strum down
      \ : Strum up
      
      ------Italian------
      Ogni accordo del ritornello dura 2 battute (suonata a 140BPM, se suonata a 70BPM dura una sola battuta).
      Per lo strumming, l'ultimo "D" prima di tornare al refrain si conclude alla pennata tra parentesi. 
      / : Pennata verso il basso
      \ : Pennata verso l'alto
      -------------------

    C    Am   Em   D                     Strumming
e|--0----0----0----2--|       C:  / /\ \ \/ /\/ /\
B|--1----1----0----3--|       Am: / /\ \ \/ /\/ /\
G|--0----2----0----2--|       Em: / /\ \ \/ /\/ /\
D|--2----2----2----0--|       D:  / /\ \/\ \(/) /\/\
A|--3----0----2-------|
E|-(0)--(0)---0-------|



Outro pt 1

    C               Am            Em          D(Upbeat/Levare)
e||---------------|--------------|------------2-|-------2--------||
B||-1-----1-----1-|-1-----1------|0-----0-----3-|-3-------3---2--||
G||-0---0---0-----|-2---2--2---2-|0---0---0---2-|---2-------2----||
D||-2-2-------2---|-2-2------2---|2-2-------2-0-|-----0----------||x3
A||-3-------------|-0------------|2-------------|----------------||
E||---------------|--------------|--------------|----------------||

   C               Am            Em          D(Upbeat/Levare)
e|---------------|--------------|------------2-|----------2-2-2-|
B|-1-----1-----1-|-1-----1------|0-----0-----3-|----------3-3-3-|
G|-0---0---0-----|-2---2--2---2-|0---0---0---2-|----------2-2-2-|
D|-2-2-------2---|-2-2------2---|2-2-------2-0-|----------0-0-0-|
A|-3-------------|-0------------|2-------------|----------------|
E|---------------|--------------|--------------|----------------|



Outro pt2

    C    Am   Em   D                     Strumming
e|--0----0----0----2--|       C:  / / /\
B|--1----1----0----3--|       Am: / / /\
G|--0----2----0----2--|x4     Em: / / /\/*        
D|--2----2----2----0--|       D:  \ \/\/\**       
A|--3----0----2-------|
E|-(0)--(0)---0-------|

*(Last "Em" strum in Palm Mute)
**(Last "D" strum can be played as a transition chord, 0-0-0-0-0-0)

------Italian------
*(L'ultima pennata del "Em" in Palm Mute)
**(L'ultima pennata del "D" può essere suonata a vuoto, come transizione. In altre parole a corde vuote, come 
   uno 0-0-0-0-0-0)
-------------------


Solo

    C    Am   Em   D        C    Am   Em               Strumming
e|--0----0----0----2--|  |--0----0----0--|        C:  / / / / / /\
B|--1----1----0----3--|  |--1----1----0--|        Em: / / /\/* 
G|--0----2----0----2--|x7|--0----2----0--|        D:  \ \/\/\**      
D|--2----2----2----0--|  |--2----2----2--|             
A|--3----0----2-------|  |--3----0----2--|
E|-(0)--(0)---0-------|  |-(0)--(0)---0--|


*(Last "Em" strum in Palm Mute)
**(Last "D" strum can be played as a transition chord, 0-0-0-0-0-0)

------Italian------
*(L'ultima pennata del "Em" in Palm Mute)
**(L'ultima pennata del "D" può essere suonata a vuoto, come transizione. In altre parole a corde vuote, come 
   uno 0-0-0-0-0-0)

Nota che l'ultimo "D" nell'ottavo giro viene saltato, tornando direttamente al refrain
-------------------



____________________________________

Refrain x3

Sarà sempre meglio                     |
Te l'hanno promesso                    |
Basta il rumore di un nuovo motore     |
E diventi facile da addormentare       |Refrain x2
Io non ci riesco                       |
ma ti seguirò lo stesso                |
Tutte le cose che voglio cambiare      |
se non mi muovo lo fanno da sole       |


Volavo sopra le nostre case            |
non c'era nulla di eccezionale         |
Non è un segreto che la terra sia      |
una palude senza di te                 |Chorus x2
Volavo sopra le nostre vite            |
Non c'era nulla di eccezionale         |
Non è un segreto che io sia cattivo    |
come un bambino senza di te            |

Refrain

Questo è lo spazio                              |
Che ci hanno concesso                           |
Ti giri e mi dici che a te può bastare          |
Se è grande abbastanza per potersi sdraiare     |
Io non ci riesco                                |Refrain x2
Ma ti seguirò lo stesso                         |
Ho mille modi per dire rischiamo                |
Ma quando è il momento smetto di parlare        |


Volavo sopra le nostre case            |
non c'era nulla di eccezionale         |
Non è un segreto che la terra sia      |
una palude senza di te                 |Chorus x2
Volavo sopra le nostre vite            |
Non c'era nulla di eccezionale         |
Non è un segreto che io sia cattivo    |
come un bambino senza di te            |


Piovono rane dall'alto del cielo       |
La gente in strada che dice ancora     |
Piovono rane dall'alto del cielo       |
Non voglio perderne neanche una        |Outro pt1
Piovono rane dall'alto del cielo       |
La gente in strada che dice ancora     |
Piovono rane dall'alto del cielo       |
Non voglio perderne neanche una        |


Piovono rane dall'alto del cielo       |
La gente in strada che dice ancora     |
Piovono rane dall'alto del cielo       |
Non voglio perderne neanche una        |Outro pt2 
Piovono rane dall'alto del cielo       |
La gente in strada che dice ancora     |
Piovono rane dall'alto del cielo       |
Non voglio perderne neanche una        |

Solo

Refrain x2

Em

Добавлено: 07.08.2015
Другие материалы по этой песне:
  • Аккорды и текст

Страница создана 07.08.2015
http://primanota.ru/ministri/una-palude-chords.htm
Привет, Гость.
Предлагаем пройти революционный курс по гитаре.
Подарок от PrimaNota.Ru, забирай!