PrimaNota.ru - самый крупный в мире бесплатный архив песенных текстов, аккордов, табулатур и нот


Ministri - Non Mi Conviene Puntare In Alto - бас-таба, видео

Регистрация Запомнить меня
Войти через:  Facebook Google Twitter Vk Yandex Mail.ru

Ministri - Non Mi Conviene Puntare In Alto - бас-таба, видео

Печатать
Просмотров: 94
Intro
G|---------------------------------|
D|---------------------------------|
A|---------------------------------| X2
E|-x-2-x-2-x-2-x-2-x-2-x-2-x-2-x-2-|

Verse
G|---------------------------------------------------------------|
D|---------------------------------------------------------------|
A|---------------------------------5-x-5-x-5-x-5-x-5-x-5-x-5-x-5-|
E|-x-2-x-2-x-2-x-2-x-2-x-2-x-2-x-2-------------------------------|

G|--------------------------------------------------------|
D|--------------------------------------------------------|
A|----------------------------------------------44-4-4-4-4|
E|-x-2-x-2-x-2-x-2-x-2-x-2-x-2-x-2-00-0-0-0-0-------------|

ITA: alterna queste due
ENG: alternate theese two

Bridge 1
G|-----------------------------------------------------------------|
D|-----------------------------------------------------------------|
A|-----------------------------------------------------------------|
E|-2-2-2-2-2-2-2-2-4-4-4-4-4-4-4-4-5-5-5-5-5-5-5-5-2-2-2-2-2-2-2-2-|

G|-----------------------------------------------------------------|
D|-----------------------------------------------------------------|
A|-----------------------------------------------------------------|
E|-2222222222222222-4444444444444444-5555555555555555--------------|

Bridge 2
G|----------|
D|----------|
A|----------| X4
E|-7-5-7-5--|

Verse X2
Bridge 1 X1

Bridge 3
G|--------------|
D|--------------|
A|-8-6-8-6------| X16
E|--------------|

Outro
G|---------------------------------------------------------------------|
D|---------------------------------------------------------------------|
A|-3333333333333333------------------1111111111111111------------------| X3
E|------------------3333333333333333------------------1111111111111111-|

Simonetor----------- ciopolo1@hotmail.it
Добавлено: 11.11.2013
Другие материалы по этой песне:
  • Аккорды и текст

Страница создана 11.11.2013
http://primanota.ru/ministri/non-mi-conviene-puntare-in-alto-chords.htm
Привет, Гость.
Предлагаем пройти революционный курс по гитаре.
Подарок от PrimaNota.Ru, забирай!