PrimaNota.ru - самый крупный в мире бесплатный архив песенных текстов, аккордов, табулатур и нот


Ministri - Idioti - бас-таба, видео

Регистрация Запомнить меня
Войти через:  Facebook Google Twitter Vk Yandex Mail.ru

Ministri - Idioti - бас-таба, видео

Печатать
Просмотров: 35
-------------------------------------------------------------------------------
                             Idioti - Ministri
-------------------------------------------------------------------------------
Tabbed by: Simonetor
E-mail: ciopolo1@hotmail.it

Intro

G|--------------------|
D|--------------------|
A|----3------5--------| x2
E|-0------5-----------|

Bridge

G|----------------------------------------------------------|
D|----------------------------------------------------------|
A|-2-2-------0-2-3-333-3-2-0-0000----0-2-2222---------------| x2
E|-----0000------------------------0----------0-------------|

Verse

G|-------------------------------------------------|
D|-------------------------------------------------|
A|-2----0-2-33--3-22-00----------------------------| x2
E|---0--------------------55-555-33----------------|

G|------------------------------------------------------------------------------|
D|------------------------------------------------------------------------------|
A|-2-------0-2-3333-3-2-000000--------------2-----0-2-3333-3-2-00-00-5-55555----|
E|---0000------------------------55-555-3-----000-------------------------------|

Chorus

G|----------------------------------------------------------------------------------|
D|----------------------------------------------------------------------------------|
A|----------33333333----------55555555-----------33333333----------5555-3333-3-2-0--| 
E|-55555555----------00000000-----------55555555----------00000000------------------|

Bridge 
Verse 
Chorus 
Post Chorus
|ITA: parte lenta, uguale al ritornello|
|ENG: slow part, same as Chorus        |
Bridge

Добавлено: 09.06.2016
Другие материалы по этой песне:
  • Аккорды и текст

Страница создана 09.06.2016
http://primanota.ru/ministri/idioti-chords.htm
Привет, Гость.
Предлагаем пройти революционный курс по гитаре.
Подарок от PrimaNota.Ru, забирай!