PrimaNota.ru - самый крупный в мире бесплатный архив песенных текстов, аккордов, табулатур и нот


Ministerio Sai Da Tenda - Sai Da Tenda - аккорды и текст, видео

Регистрация Запомнить меня
Войти через:  Facebook Google Twitter Vk Yandex Mail.ru

Ministerio Sai Da Tenda - Sai Da Tenda - аккорды и текст, видео

Печатать
Просмотров: 57
Sai Da Tenda
Ministerio Sai Da Tenda
Sai da Tenda
Ministério Sai da Tenda

Tom: A#

(intro) Bb Eb Bb Eb

Bb                           Eb
   As promessas do Pai
                    Bb             F
Vão se cumprir na tua vida
Bb                                Eb             F
   Não importa o que a realidade diz
      Eb                        F
Viverás o melhor de Deus

1ª  Eb/G F/ABb

  Que está por vir

Eb/G                    F/A
      E serás uma grande nação,
Eb/G                       F/A
      Abençoado por onde quer que for.
              Bb   Bb/D    Eb
  Tua família prosperarei.
                  Cm          Cm/Bb       F
  Conta se pode as estrelas do céu
                                       Bb
  Assim será tua descendência

      Eb                        F
  Levanta, sai da tua tenda
                   Cm          Cm/Bb
  Busca o milagre que tem
              F
  Reservado pra ti
        Cm                                F
  E verás que eu sou o que sou
           Bb
  Filho meu

(solo base)  Bb F Bb C D# C Bb F 

E |-------------------------------------10-11-13-----18-17-----------------------------------------I
B |-18b(1/2)18---15b(1/2)15---13----------------*/18-------18---------------------11---------------I
G |------------------------------12/10-----------------------17/19-15--8--10b(1T)----10--8-7-8-7---I
D |----------------------------------------------------------------------------------------------8-I
A |------------------------------------------------------------------------------------------------I
E |------------------------------------------------------------------------------------------------I

E |--------------I
B |--------------I
G |--7-8---------I
D |------10/3----I
A |--------------I
E |--------------I
Добавлено: 16.10.2013
Другие материалы по этой песне:
  • Аккорды и текст

Страница создана 16.10.2013
http://primanota.ru/ministerio-sai-da-tenda/sai-da-tenda-chords.htm
Привет, Гость.
Предлагаем пройти революционный курс по гитаре.
Подарок от PrimaNota.Ru, забирай!