PrimaNota.ru - самый крупный в мире бесплатный архив песенных текстов, аккордов, табулатур и нот


Minibosses - Wizards And Warriors - таба, видео

Регистрация Запомнить меня
Войти через:  Facebook Google Twitter Vk Yandex Mail.ru

Minibosses - Wizards And Warriors - таба, видео

Печатать
Просмотров: 146
Artist: The Minibosses (http://www.minibosses.com)
Tabbed by: David Howarth (davwhsdb@yahoo.com)

Alrighty, my comments.  Down near the end of the tab there, I realized that
one of the guitars is in Drop D tuning.  Since I mainly focused on Guitar 1
I didn't fix everything for it.  If you were to cover this I'd suggest
drop D'ing the bass and learning the bass part to cover those spots.

I usually play this with chorus all the way through and distortion in the 
parts where it needs it.  Listen to the song (it's free!) and figure out the
timing on your own.  Enjoy!

-David

Guitar 1
e :||-10----12----13----15----------10----15----13----12----13----15----------
B :||----10----10----10----10-11-------------------------13----13-------13----
G :||*---------------------------12----12----12----12----------------12----12-
D :||*------------------------------------------------------------------------
A :||-------------------------------------------------------------------------
E :||-------------------------------------------------------------------------

Guitar 1
e :-------------13----12----------------------------------12----13------------
B :-11----10----------------15----17----18----15----15----------------15------
G :----10----10----10----10----15----15----15----15----12----12----12----12---
D :---------------------------------------------------------------------------
A :---------------------------------------------------------------------------
E :---------------------------------------------------------------------------

Guitar 1
e :-------------------------17----------17----17------||
B :-17----14----17----14----------14-------14---------||
G :----14----14----14----14----14----14----------14--*||
D :--------------------------------------------------*|| Repeat 1x
A :---------------------------------------------------||
E :---------------------------------------------------||

Guitar 1
e :||----------------15-17----17-------18-17-------18\15----------12-13-15---
B :||-18----15----18----------------15----------15----------13-------------13
G :||*---14----14----------14----15----------15----------12----12------------
D :||*-----------------------------------------------------------------------
A :||------------------------------------------------------------------------
E :||------------------------------------------------------------------------

Guitar 1
e :-15-------17-13----12------------------------------------------------------
B :-------13-------------13-18----15----15-17-18----18----15----15-17-18------
G :----14----------14----------15----15----------15---------------------------
D :----------------------------------------------------17----17----------17---
A :---------------------------------------------------------------------------
E :---------------------------------------------------------------------------

Guitar 1
e :-------------------------17----------17----17------||
B :-18----14----17----14----------14-------14---------||
G :----14----14----14----14----14----14----------14--*||
D :--------------------------------------------------*||  Repeat 1x
A :---------------------------------------------------||
E :---------------------------------------------------||

Guitar 2 (While guitar 1 does immediately above part) With heavy, nasty,
harmonic distortion
e :---------------------------------------------------------------
B :---------------------------------------------------------------
G :-----------------5-----------------5-7-------------------------
D :---------5-5-7-8---8-7-5---5-7---8-----8-5-7-8-5-7---7-5------- Repeat 1x
A :-5-5-7-8-----------------8-----8-------------------------8-7-5-
E :---------------------------------------------------5-----------

Guitar 1                     ~
e :-------------------------------------------------------------------------
B :-15----17-18-15----17-18-15----------------------------------------------
G :----14----------14-------------------------------------------------------
D :-------------------------------------------------------------------------
A :-------------------------------------------------------------------------
E :-------------------------------------------------------------------------

Guitar 1&2
e :-------------------------------------------
B :-------------------------------------------
G :-4-6-7-9-9-9-10-11--4-4-6-7-9-9-9-10-11----
D :-4-6-7-9-9-9-10-11--4-4-6-7-9-9-9-10-11----  Repeat a buttload of times
A :-2-4-5-7-7-7--8--9----2-4-5-7-7-7--8--9----
E :-------------------------------------------

Guitar 1
e :||--------------------------------||
B :||--------------------------------||
G :||*-----4-6-4--------------------*||
D :||*-4-7-------6-----6-4-6-6-7-4--*|| Play 3 times
A :||--------------7-4---------------||
E :||--------------------------------||

Guitar 2
e :||--------------------------------||
B :||--------------------------------||
G :||*------------------------------*||
D :||*------------------------------*|| Play 3 times
A :||------2-4-2---------------------||
E :||--2-5-------4-0---4-2-4-4-5-2---||

Guitar 1
e :-----------------------------
B :-----------------------------
G :-6-6-4---4-------------------
D :-------7---6-----6-4-6-6-7-4- Played once then back to the above once
A :-------------7-4-------------
E :-----------------------------

Guitar 2
e :-----------------------------
B :-----------------------------
G :-----------------------------
D :----------------------------- Played once then back to the above once
A :-4-4-2-0-2-------------------
E :-----------4-0---4-2-4-4-5-2-

Guitar 1  Played with increasing volume
e :-16-17-16-17-16--16-17-16-17-16--16-17-16-17-16--16-17-16-17-16----------
B :-------------------------------------------------------------------------
G :-------------------------------------------------------------------------
D :-------------------------------------------------------------------------
A :-------------------------------------------------------------------------
E :-------------------------------------------------------------------------

Guitar 2  It's really lower than this but you'd have to detune your E string
e :-------------------------------------------------------------------------
B :-------------------------------------------------------------------------
G :-------------------------------------------------------------------------
D :-------------------------------------------------------------------------
A :-9---------------7-------------------------------------------------------
E :---------------------------------9---------------10----------------------

Guitar 1
e :||--------------------------------||
B :||--------------------------------||
G :||*-----4-6-4--------------------*||
D :||*-4-7-------6-----6-4-6-6-7-4--*|| Twice more
A :||--------------7-4---------------||
E :||--------------------------------||

Guitar 2
e :||--------------------------------||
B :||--------------------------------||
G :||*------------------------------*||
D :||*------------------------------*|| Twice more
A :||------2-4-2---------------------||
E :||--2-5-------4-0---4-2-4-4-5-2---||

Guitar 1 with distortion
e :-------------------------------------------------------------------------
B :---------7b-5------------------------------------------------------------
G :-----4-6------6-6-7-6-4-6-4-----4---6-7-6-4-7-4---4----------------------
D :-4-7------------------------7-7---7-------------7---7-6-7-6-4-6-4---4----
A :------------------------------------------------------------------7---7-4
E :-------------------------------------------------------------------------

Guitar 2 with even more distortion (Just noticed this guitar should be in 
e :----------------------------     Drop d tuning...but don't worry about it.  
B :----------------------------     If you actually play this for people in a 
G :-------------9-9---8-8--7-6-     band put the bass in the drop D and 
D :-------------9-9---8-8--7-6-     figure out the bass part here.)
A :-----2-4-----7-7---6-6--5-4-     
E :-2-5-----0------------------     Play this part twice to match guitar 1

Guitar 1
e :-------------------------------------------------------------12-12-------
B :-------------12----------------------12-------12-14-14-12----------15-14-
G :-------11-14----14-13-13h14p13----13----11-14-------------14-------------
D :-11-14-------------------------14----------------------------------------
A :-------------------------------------------------------------------------
E :-------------------------------------------------------------------------

Guitar 1
e :-15-14-15-14-15-14-15-14-15-14-15-14----
B :-------------------------------------14-
G :----------------------------------------
D :----------------------------------------
A :----------------------------------------
E :----------------------------------------

Guitar 2
e :----------------------------     
B :----------------------------     
G :-------------9-9---8-8--7-6-     
D :-------------9-9---8-8--7-6-     
A :-----2-4-----7-7---6-6--5-4-     
E :-2-5-----0------------------     Play this part twice to match guitar 1

Guitar 1
e :---------------------------------------
B :-----5---------------------------8-----
G :-------7-6-7-6-6-6-6-7-6---------------  Repeat one more time and you're
D :---7-----------7-7-------6-6-------6-6- done :)
A :-5-----------------------8-8-------8-8-
E :---------------------------------------
Добавлено: 12.06.2012
Другие материалы по этой песне:

Страница создана 09.06.2012
http://primanota.ru/minibosses/wizards-and-warriors-chords.htm
Привет, Гость.
Предлагаем пройти революционный курс по гитаре.
Подарок от PrimaNota.Ru, забирай!