PrimaNota.ru - самый крупный в мире бесплатный архив песенных текстов, аккордов, табулатур и нот


Minibosses - Castlevania - таба, видео

Регистрация Запомнить меня
Войти через:  Facebook Google Twitter Vk Yandex Mail.ru

Minibosses - Castlevania - таба, видео

Печатать
Просмотров: 119
---------------------------------------------------------------------------
                       CASTLEVANIA - Minibosses
---------------------------------------------------------------------------
Tabbed by Seth Lilly
Email: SethMegadefan@gmail.com


Just a few notes on this tab:
  *Some of the tab has been split up into 2 staves, the top
   being Guitar 1 and the bottom being Guitar 2. Single
   staves indicate that both guitars play in unison.
  *Some of the sections in here are to be repeated (see
   below). All notes in parentheses are to be played only
   during the repeated section.
  *Sections surrounded by |*|'s are to be repeated.

Order of sections:
  OUT OF TIME - INTRO    X1
  OUT OF TIME - MAIN     X2
  WICKED CHILD - INTRO   X1
  WICKED CHILD - MAIN    X2
  STALKER                X2
  VAMPIRE KILLER         X2




TUNING: STANDARD

OUT OF TIME - INTRO (0:00)

e|--------------------|
B|--------------------|
G|--------------------|
D|--------------------|
A|---------------1/---|
E|--------------------|



OUT OF TIME - MAIN (0:02)/(0:34)

e|---------------------------------|----------------------------------|
B|---------------------------------|----------------------------------|
G|--------12------12------10-12----|--------12------12------10-12-----|
D|---------------------------------|----------------------------------|
A|10--10------10------10-----------|10--10------10------10------------|
E|---------------------------------|----------------------------------|
 |                                 |                                  |
e|---------------------------------|----------------------------------|
B|---------------------------------|----------------------------------|
G|---------------------------------|----------------------------------|
D|--------5-------5-------3--5-----|--------5-------5-------3--5------|
A|---------------------------------|----------------------------------|
E|3---3-------3-------3------------|3---3-------3-------3-------------|




e|---------------------------------|----------------------------------|
B|---------------------------------|----------------------------------|
G|--------12------12------10-12----|--------12------12------10-12-----|
D|---------------------------------|----------------------------------|
A|10--10------10------10-----------|10--10------10------10------------|
E|---------------------------------|----------------------------------|
 |                                 |                                  |
e|---------------------------------|----------------------------------|
B|---------------------------------|----------------------------------|
G|---------------------------------|----------------------------------|
D|--------5-------5-------3--5-----|--------5-------5-------3--5------|
A|---------------------------------|----------------------------------|
E|3---3-------3-------3------------|3---3-------3-------3-------------|





e|--------------------------|---------------------|
B|--------11----------10-11-|13------11------10---|
G|12------------------------|---------------------|
D|--------------------------|---------------------|
A|--------------------------|---------------------|
E|--------------------------|---------------------|
 |                          |                     |
e|--------------------------|---------------------|
B|--------8-----------7--8--|10------8-------6----|
G|7-------------------------|---------------------|
D|--------------------------|---------------------|
A|--------------------------|---------------------|
E|--------------------------|---------------------|




e|---------------------|----------10----------|
B|11\-----8------------|----10----------------|
G|---------------------|----------------------|
D|---------------------|----------------------|
A|---------------------|----------------------|
E|---------------------|----------------------|
 |                     |                      |
e|---------------------|----------------------|
B|---------------------|-----------10---------|
G|8-------7--------6---|7---------------------|
D|---------------------|----------------------|
A|---------------------|----------------------|
E|---------------------|----------------------|





e|--------------------------|---------------------|
B|--------11----------10-11-|13------11------10---|
G|12------------------------|---------------------|
D|--------------------------|---------------------|
A|--------------------------|---------------------|
E|--------------------------|---------------------|
 |                          |                     |
e|--------------------------|---------------------|
B|--------8-----------7--8--|10------8-------6----|
G|7-------------------------|---------------------|
D|--------------------------|---------------------|
A|--------------------------|---------------------|
E|--------------------------|---------------------|




e|---------------------|----------10----------|
B|11\-----8------------|----10----------------|
G|---------------------|----------------------|
D|---------------------|----------------------|
A|---------------------|----------------------|
E|---------------------|----------------------|
 |                     |                      |
e|---------------------|----------------------|
B|---------------------|-----------10---------|
G|8-------7--------6---|7---------------------|
D|---------------------|----------------------|
A|---------------------|----------------------|
E|---------------------|----------------------|





e|15-------15-------15------|15-------15-------15------|
B|-----15-------15------15--|-----15-------15------15--|
G|--------------------------|--------------------------|
D|--------------------------|--------------------------|
A|--------------------------|--------------------------|
E|--------------------------|--------------------------|




e|15-------15-------15------|15-------15-------15------|
B|-----15-------15------15--|-----15-------15------15--|
G|--------------------------|--------------------------|
D|--------------------------|--------------------------|
A|--------------------------|--------------------------|
E|--------------------------|--------------------------|





e|----------------------------|----------------------------|---------------|
B|------------------------13--|-----13---15--13---15---16--|15-------------|
G|12---14---15--14---15-------|15--------------------------|---------------|
D|----------------------------|----------------------------|---------------|
A|----------------------------|----------------------------|---------------|
E|----------------------------|----------------------------|---------------|
 |                            |                            |               |
e|----------------------------|----------------------------|---------------|
B|----------8--------8----10--|----------8--------8----9---|10-------------|
G|8----10-------10------------|8----10-------10------------|---------------|
D|----------------------------|----------------------------|---------------|
A|----------------------------|----------------------------|---------------|
E|----------------------------|----------------------------|---------------|






e|--------------------------------|
B|----15--14--13--12--------------|
G|--------------------15--14--13--|
D|--------------------------------|
A|--------------------------------|
E|--------------------------------|
 |                                |
e|--------------------------------|
B|--------------------------------|
G|--------------------------------|
D|--------------------------------|
A|----------------------------(4)-|
E|------------------------(6)-----|





WICKED CHILD - INTRO (1:07)

e|-------------------------------------------|
B|-------------------------------------------|
G|-------------------------------------------|
D|----4--4--4--3--4----6----4--4--4--3--4----|
A|-------------------------------------------|
E|-------------------------------------------|
 |                                           |
e|-------------------------------------------|
B|-------------------------------------------|
G|-------------------------------------------|
D|-------------------------------------------|
A|6------------------------------------------|
E|-------------------------------------------|




e|-------------------------------------------|
B|-------------------------------------------|
G|-------------------------------------------|
D|----4--4--4--3--4----6----4--4--4--3--4----|
A|-------------------------------------------|
E|-------------------------------------------|
 |                                           |
e|-------------------------------------------|
B|-------------------------------------------|
G|-------------------------------------------|
D|-------------------------------------------|
A|2------------------------------------------|
E|-------------------------------------------|




e|-------------------------------------------|
B|-------------------------------------------|
G|-------------------------------------------|
D|----4--4--4--3--4----6----4--4--4--3--4----|
A|-------------------------------------------|
E|-------------------------------------------|
 |                                           |
e|-------------------------------------------|
B|-------------------------------------------|
G|-------------------------------------------|
D|-------------------------------------------|
A|6------------------------------------------|
E|-------------------------------------------|




e|-------------------------------------------|
B|-------------------------------------------|
G|-------------------------------------------|
D|----4--4--4--3--4----6----4--4--4--3--4----|
A|-------------------------------------------|
E|-------------------------------------------|
 |                                           |
e|-------------------------------------------|
B|-------------------------------------------|
G|-------------------------------------------|
D|-------------------------------------------|
A|2------------------------------------------|
E|-------------------------------------------|





e|----13---12---11---10-----------|----13---12---11---10-----------|
B|--------------------------------|--------------------------------|
G|8----------------------------8--|--------------------------------|
D|-----------------------8--11----|-----------------------8--11----|
A|--------------------------------|-----------------------------11-|
E|--------------------------------|--------------------------------|
 |                                |                                |
e|--------------------------------|--------------------------------|
B|----14---13---12---11-----------|----14---13---12---11-----------|
G|8----------------------------8--|--------------------------------|
D|-----------------------8--11----|-----------------------8--11----|
A|--------------------------------|-----------------------------11-|
E|--------------------------------|--------------------------------|




e|----13---12---11---10-----------|----13---12---11---10-----------|
B|--------------------------------|--------------------------------|
G|-----------------------------8--|--------------------------------|
D|-----------------------8--11----|-----------------------8--11----|
A|--------------------------------|--------------------------------|
E|--------------------------------|--------------------------------|
 |                                |                                |
e|--------------------------------|--------------------------------|
B|----14---13---12---11-----------|----14---13---12---11-----------|
G|-----------------------------8--|--------------------------------|
D|-----------------------8--11----|-----------------------8--11----|
A|--------------------------------|--------------------------------|
E|--------------------------------|--------------------------------|




WICKED CHILD - MAIN (1:29)/(2:16)

e|------------------------------------------------|
B|11-10-11-10-11-------11----11-10-11----------11-|
G|---------------8--11----------------8--11-------|
D|------------------------------------------------|
A|------------------------------------------------|
E|------------------------------------------------|
 |                                                |
e|------------------------------------------------|
B|---------------------7--------------------------|
G|8--7--8--7--8-----8--------8--8--8-----8-----8--|
D|---------------8--------------------8-----------|
A|------------------------------------------------|
E|------------------------------------------------|




e|------9--------------9--------------------|
B|---7--------------7-----------------------|
G|8--------------8--------------------------|
D|------------------------------------------|
A|------------------------------------------|
E|------------------------------------------|
 |                                          |
e|------------------------------------------|
B|------7--------------7--------------------|
G|---8--------------8-------------6----7----|
D|9--------------9-----------9--------------|
A|------------------------------------------|
E|------------------------------------------|






e|------------------------------------------------|
B|11-10-11-10-11-------11----11-10-11----------11-|
G|---------------8--11----------------8--11-------|
D|------------------------------------------------|
A|------------------------------------------------|
E|------------------------------------------------|
 |                                                |
e|------------------------------------------------|
B|---------------------7--------------------------|
G|8--7--8--7--8-----8--------8--8--8-----8-----8--|
D|---------------8--------------------8-----------|
A|------------------------------------------------|
E|------------------------------------------------|




e|------9--------------9----------14---13---|
B|---7--------------7-----------------------|
G|8--------------8--------------------------|
D|------------------------------------------|
A|------------------------------------------|
E|------------------------------------------|
 |                                          |
e|--------------------------------11---9----|
B|------7--------------7--------------------|
G|---8--------------8-----------------------|
D|9--------------9--------------------------|
A|------------------------------------------|
E|------------------------------------------|






e|13-9-----9-----------13----9-----9--------------|
B|------9-----9-----------------9-----9-----------|
G|---------------10----------------------10-------|
D|------------------------------------------------|
A|------------------------------------------------|
E|------------------------------------------------|




e|---------------11----------------------11-------|
B|------11----11----------------11----11----------|
G|8--11----11----------8-----11----11-------------|
D|------------------------------------------------|
A|------------------------------------------------|
E|------------------------------------------------|






e|13-9-----9-----------13----9-----9--------------|
B|------9-----9-----------------9-----9-----------|
G|---------------10----------------------10-------|
D|------------------------------------------------|
A|------------------------------------------------|
E|------------------------------------------------|




e|---------------11----------------------11-------|
B|------11----11----------------11----11----------|
G|8--11----11----------8-----11----11-------------|
D|------------------------------------------------|
A|------------------------------------------------|
E|------------------------------------------------|






e|*|------------------------------14----16----18\---|
B|*|------------------------------------------------|
G| |11-------13-------15----------------------------|
D| |------------------------------------------------|
A|*|------------------------------------------------|
E|*|------------------------------------------------|
 | |                                                |
e|*|------------------------------14----16----18\---|
B|*|------------------------------------------------|
G| |8--------10-------11----------------------------|
D| |------------------------------------------------|
A|*|------------------------------------------------|
E|*|------------------------------------------------|




e|------------------------------13----14----16\---|
B|------------------------------------------------|
G|10-------11-------13----------------------------|
D|------------------------------------------------|
A|------------------------------------------------|
E|------------------------------------------------|
 |                                                |
e|------------------------------13----14----16\---|
B|------------------------------------------------|
G|6--------8--------10----------------------------|
D|------------------------------------------------|
A|------------------------------------------------|
E|------------------------------------------------|


                                                                                    



e|------------------------------11----13----14\---|
B|------------------------------------------------|
G|8--------10-------11----------------------------|
D|------------------------------------------------|
A|------------------------------------------------|
E|------------------------------------------------|
 |                                                |
e|------------------------------11----13----14\---|
B|------------------------------------------------|
G|4--------6--------8-----------------------------|
D|------------------------------------------------|
A|------------------------------------------------|
E|------------------------------------------------|




e|------------------------------------------------|*|
B|------------------------------------------------|*|
G|7--------8--------10----------------------------| |
D|------------------------------------------------| |
A|------------------------------------------------|*|
E|------------------------------------------------|*|
 |                                                | |
e|------------------------------------------------|*|
B|------------------------------------------------|*|
G|3--------5--------7-----------------------------| |
D|------------------------------------------------| |
A|------------------------------------------------|*|
E|------------------------------------------------|*|




 |v    Play this measure on repeat   v|
e|------------------------------------|
B|------------------------------------|
G|10-------11-------13----------------|
D|------------------------------------|
A|------------------------------------|
E|------------------------------------|
 |                                    |
e|------------------------------------|
B|------------------------------------|
G|7--------8--------10----------------|
D|------------------------------------|
A|------------------------------------|
E|------------------------------------|





STALKER (3:03)/(3:40)


 Bass
G|-------------3-----------------5----|-------------3-----------------|
D|----------4-----------------6-------|----------4--------------------|
A|6----6-----------------6------------|6----6-------------------4-----|
E|------------------------------------|----------------------6--------|




G|-------------3-----------------5----|-------------3-----------------|
D|----------4-----------------6-------|----------4--------------------|
A|6----6-----------------6------------|6----6-------------------4-----|
E|------------------------------------|----------------------6--------|





e|------------------------------------|----------------------------------|
B|-------11---------------------------|10-11-10--------------------------|
G|8-----------------------------------|---------11-----------------------|
D|------------------------------------|----------------------------------|
A|------------------------------------|----------------------------------|
E|------------------------------------|----------------------------------|
 |                                    |                                  |
e|------------------------------------|----------------------------------|
B|------------------------------------|----------------------------------|
G|-------8----------------7---6---5---|8--10-8---------------------------|
D|8-----------------------------------|---------9------------------------|
A|------------------------------------|----------------------------------|
E|------------------------------------|----------------------------------|




e|------------------------------------|----------------------------------|
B|-------11---------------------------|10-11-10--------------------------|
G|8-----------------------------------|---------11-----------------------|
D|------------------------------------|----------------------------------|
A|------------------------------------|----------------------------------|
E|------------------------------------|----------------------------------|
 |                                    |                                  |
e|------------------------------------|----------------------------------|
B|------------------------------------|----------------------------------|
G|-------8----------------7---6---5---|8--10-8---------------------------|
D|8-----------------------------------|---------9------------------------|
A|------------------------------------|----------------------------------|
E|------------------------------------|----------------------------------|





e|--------------------------------|---------------------------|
B|--------------------------------|---------------------------|
G|6---6-5---5-4---3---3-2---2-1---|---------------------------|
D|--------------------------------|4\----1--------------------|
A|--------------------------------|---------------------------|
E|--------------------------------|---------------------------|




e|--------------------------------|---------------------------|
B|--------------------------------|---------------------------|
G|6---6-5---5-4---3---3-2---2-1---|---------------------------|
D|--------------------------------|4\----1--------------------|
A|--------------------------------|---------------------------|
E|--------------------------------|---------------------------|





(Play these measures twice the second time through)
e|--------------------------------|---------------------------|
B|----4-4---4-----3---------------|----4-4---4-----3----------|
G|--------------------------------|---------------------------|
D|--------------------------------|---------------------------|
A|--------------------------------|---------------------------|
E|--------------------------------|---------------------------|
 |                                |                           |
e|--------------------------------|---------------------------|
B|--------------------------------|---------------------------|
G|----5-5---5-----3---------------|----5-5---5-----3----------|
D|--------------------------------|---------------------------|
A|--------------------------------|---------------------------|
E|--------------------------------|---------------------------|




VAMPIRE KILLER (4:22)/(4:49)

e|11-11---9---8-------------------|------------------9--------|
B|--------------------------7--9--|11---------11--9-----------|
G|-------------------8---10-------|------8--------------------|
D|--------------------------------|---------------------------|
A|--------------------------------|---------------------------|
E|--------------------------------|---------------------------|
 |                                |                           |
e|--------------------------------|---------------------------|
B|11-11---9---9-------------------|------------------9--------|
G|-------------------8---8--6--6--|8----------8---6-----------|
D|--------------------------------|------9--------------------|
A|--------------------------------|---------------------------|
E|--------------------------------|---------------------------|




e|11-11---9---8-------------------|---------------------------|
B|--------------------------7--9--|11---------11--9-----------|
G|-------------------8---10-------|------8----------6---------|
D|--------------------------------|---------------------------|
A|--------------------------------|---------------------------|
E|--------------------------------|---------------------------|
 |                                |                           |
e|--------------------------------|---------------------------|
B|11-11---9---9-------------------|---------------------------|
G|-------------------8---8--6--6--|8----------8---6--6--------|
D|--------------------------------|------9--------------------|
A|--------------------------------|---------------------------|
E|--------------------------------|---------------------------|





e|--------18----17-18-17-14------|18--18-17--17-16---18--18-17--17-16---|
B|--16---------------------------|--------------------------------------|
G|-------------------------------|--------------------------------------|
D|-------------------------------|--------------------------------------|
A|-------------------------------|--------------------------------------|
E|-------------------------------|--------------------------------------|
 |                               |                                      |
e|-------------------------------|----14-----14----------14----14----14-|
B|--------16----15-16-16-14------|-------16-----16----------16----16----|
G|--15---------------------------|--------------------------------------|
D|-------------------------------|--------------------------------------|
A|-------------------------------|--------------------------------------|
E|-------------------------------|--------------------------------------|




e|--------18----17-18-17-14------|18--18-17--17-16---18--18-17--17-16---|
B|--16---------------------------|--------------------------------------|
G|-------------------------------|--------------------------------------|
D|-------------------------------|--------------------------------------|
A|-------------------------------|--------------------------------------|
E|-------------------------------|--------------------------------------|
 |                               |                                      |
e|-------------------------------|----14-----14----------14----14----14-|
B|--------16----15-16-15-14------|-------16-----16----------16----16----|
G|--15---------------------------|--------------------------------------|
D|-------------------------------|--------------------------------------|
A|-------------------------------|--------------------------------------|
E|-------------------------------|--------------------------------------|





e|--------7--6----------|--------7--6----------|
B|----6----------7------|----6-----------------|
G|7------------------8--|7--------------8------|
D|----------------------|----------------------|
A|----------------------|----------------------|
E|----------------------|----------------------|
 |                      |                      |
e|----------------------|----------------------|
B|--------6--4----------|--------6--4----------|
G|4---7----------3------|4---7----------3------|
D|-------------------4--|----------------------|
A|----------------------|----------------------|
E|----------------------|----------------------|




e|--------7--6----------|--------7--6---8---10-|
B|----6----------7------|6---9-----------------|
G|7------------------8--|----------------------|
D|----------------------|----------------------|
A|----------------------|----------------------|
E|----------------------|----------------------|
 |                      |                      |
e|----------------------|-------------------4--|
B|--------6--4----------|--------6------6------|
G|4---7----------3------|4---7------7----------|
D|-------------------4--|----------------------|
A|----------------------|----------------------|
E|----------------------|----------------------|




e|11-11--------------------|-----------------------------|
B|----------------------x\-|--------4-7------------6-9---|
G|--------8--8----------x\-|4---4----------6---6---------|
D|----------------------x\-|-----------------------------|
A|-------------------------|-----------------------------|
E|-------------------------|-----------------------------|
 |                         |                             |
e|6--6---------------------|-----------------------------|
B|-------------------------|----------4-------------6----|
G|--------3--3----------x\-|--------4-------------6------|
D|----------------------x\-|4---4---------6---6----------|
A|----------------------x\-|-----------------------------|
E|-------------------------|-----------------------------|




e|11-11--------------------|------------------------------|
B|----------------------x\-|--------4-7-------------------|
G|--------8--8----------x\-|4---4---------6---6-----------|
D|----------------------x\-|------------------------------|
A|-------------------------|--------------------------(4)-|
E|-------------------------|----------------------(6)-----|
 |                         |                              |
e|6--6---------------------|------------------------------|
B|-------------------------|----------4-------------------|
G|--------3--3----------x\-|--------4---------------------|
D|----------------------x\-|4---4---------6---6-----------|
A|----------------------x\-|--------------------------(4)-|
E|-------------------------|----------------------(6)-----|




************************************

| /   slide up
| \   slide down
| h   hammer-on
| p   pull-off
| ~   vibrato
| +   harmonic
| x   Mute note
| b   Bend
| pb  Pre-bend
| br  Bend release
| pbr Pre-bend release
| brb Bend release bend

************************************
Добавлено: 13.06.2012
Другие материалы по этой песне:

Страница создана 15.03.2012
http://primanota.ru/minibosses/castlevania-chords.htm
Привет, Гость.
Предлагаем пройти революционный курс по гитаре.
Подарок от PrimaNota.Ru, забирай!