PrimaNota.ru - самый крупный в мире бесплатный архив песенных текстов, аккордов, табулатур и нот


Minibosses - Castlevania 1 - таба, видео

Регистрация Запомнить меня
Войти через:  Facebook Google Twitter Vk Yandex Mail.ru

Minibosses - Castlevania 1 - таба, видео

Печатать
Просмотров: 101


                        (0:13)
e|-------------------------------------------|-----13---12----11--10------------------||
B|-------------------------------------------|----------------------------------------||
G|o-----------------------------------------o|---------------------------6--~8--------||
D|o-----------------------------------------o|------------------------8---------------||
A|---9-9-9h8-9-9/11---9-9-9h8-~9-------------|----------------------------------------||
E|-------------------------------------------|----------------------------------------||

                                                              /
                                                              ||
              ||------------------------2x----------------------
              /

e|---13---12---11---10--------------|---------------------------------------------~9--
B|----------------------------------|-----11-10-11-10-11------11-10-11-10-11----7-----
G|------------------------6---------|o-------------------8-11----------------8--------
D|---------------------8-----6------|o------------------------------------------------
A|----------------------------------|-------------------------------------------------
E|----------------------------------|-------------------------------------------------

                          A (0:26)
e|-------~9------------------------------------------------------------------~9--
B|-----7---------------------11-10-11-10-11------11-10-11-10-11------11----7-----
G|--8---------------6--7---------------------8-11----------------8-11----8-------
D|--------------9----------------------------------------------------------------
A|-------------------------------------------------------------------------------
E|-------------------------------------------------------------------------------

               (0:~38)
e|-------~9---14-13--13-9------9--------13--9----9--------------------------11--
B|-----7--------------------9-----9-----------9-----9------------11------11-----
G|--8--------------------------------10-----------------10--8-11------11--------
D|------------------------------------------------------------------------------
A|------------------------------------------------------------------------------
E|------------------------------------------------------------------------------

-
e|--13-9----9---------13-9----9------------------------11-----------------11----
B|--------9----9------------9----9------------11----11----------11-----11-------
G|-----------------10----------------10--8-11----11--------8-11-----11----------
D|------------------------------------------------------------------------------
A|------------------------------------------------------------------------------
E|------------------------------------------------------------------------------

    (0:50)
e|-----------------14--16--18---------------13--14--16--------------11--13--14--
B|------------------------------------------------------------------------------
G|--11---13---15--------------10---11--13----------------8--10--11--------------
D|------------------------------------------------------------------------------
A|------------------------------------------------------------------------------
E|------------------------------------------------------------------------------


e|-------------------------------14--16--18--------------13--14--16-------------
B|------------------------------------------------------------------------------
G|--7--8--10---------11--13--15--------------10--11--13-------------8--10--11---
D|------------------------------------------------------------------------------
A|------------------------------------------------------------------------------
E|------------------------------------------------------------------------------

                                  (1:18) |---REPEAT FROM 'A'
e|--11--13--14---------------------------|----------------------------------------
B|---------------------------------------|----------------------------------------
G|--------------7--8--10----10--11--13--o|-----(2:15)Rest for bass and drum solo--
D|--------------------------------------o|----------------------------------------
A|---------------------------------------|----------------------------------------
E|---------------------------------------|----------------------------------------

  (2:26)
e|----------6------5-6-5--------------6---------5-6-5---------------------------
B|----4------------------7-------4--------------------7-----2--1--0-------------
G|-------------------------------------------------------------------3--2--1----
D|------------------------------------------------------------------------------
A|------------------------------------------------------------------------------
E|------------------------------------------------------------------------------

e|------------------------------------------------------------------------------
B|----------2--1--0----------------------4--4----4---3---------4-4---4--3-------
G|-------------------3--2--1----------2---------------------2-------------------
D|--4--1-----------------------4--1---------------------------------------------
A|------------------------------------------------------------------------------
E|------------------------------------------------------------------------------

(2:55)Break for bass and drum solo


 (3:07)
e|-----6----5--6--5------------6-----5-6-5--------------------------------------
B|--4---------------7-------4--------------7----2--1--0-----------------2--1--0-
G|-------------------------------------------------------3--2--1----------------
D|----------------------------------------------------------------4--1----------
A|------------------------------------------------------------------------------
E|------------------------------------------------------------------------------

e|---------------------------------------------------------------------------------
B|----------------------4-4--4--3---------4-4--4--3------4-4---4--3-----4-4--4--3--
G|--3--2--1----------2-----------------2--------------2---------------2------------
D|------------4--1-----------------------------------------------------------------
A|---------------------------------------------------------------------------------
E|---------------------------------------------------------------------------------

(3:40)Rest

(3:57)
e|--11-11--9-8--------------------------9-----11-11--9-8------------------------
B|------------------------9-11----11-9-------------------------------9--11------
G|---------------8--10-11-------8---------------------------8-10-11--------8----
D|------------------------------------------------------------------------------
A|------------------------------------------------------------------------------
E|------------------------------------------------------------------------------

e|-----------------------18--17-18-17----18--18-17---17-16----17-18-17-18-17-18-17--
B|--11--9------------16---------------19--------------------------------------------
G|----------------------------------------------------------------------------------
D|----------11----------------------------------------------------------------------
A|----------------------------------------------------------------------------------
E|----------------------------------------------------------------------------------

e|-------18---17-18-17----------18--18-17----17-16-----17-18-17-18-17-18-17-----
B|---16----------------19-------------------------------------------------------
G|------------------------------------------------------------------------------
D|------------------------------------------------------------------------------
A|------------------------------------------------------------------------------
E|------------------------------------------------------------------------------

(4:13)
e|------7--6-------------7--6--------------7--6---------------7--6--8--10-------
B|----6------7--4-----6--------4--------6--------7--4--6--9---------------------
G|--7--------------7-----------------7------------------------------------------
D|------------------------------------------------------------------------------
A|------------------------------------------------------------------------------
E|------------------------------------------------------------------------------

e|--11-11------------------------------4----11-11-------------------------------
B|----------------------4--7--------6----------------------------4--7-----------
G|-------8--8---4---4---------6--6---------------8--8------4--4--------6--6-----
D|------------------------------------------------------------------------------
A|------------------------------------------------------------------------------
E|------------------------------------------------------------------------------

e|--11-11--9--8----------------------------9--------11-11--9--8-----------------
B|-------------------------9--11----11--9------------------------------------9--
G|----------------8--10-11-------8---------------------------------8--10-11-----
D|------------------------------------------------------------------------------
A|------------------------------------------------------------------------------
E|------------------------------------------------------------------------------
                          (4:38)
e|----------------------------18--17-18-17--------18--18-17--17--16----17-18-17-18-17-18-17-
B|--11----11--9-----------16---------------19-----------------------------------------------
G|-----8----------7-------------------------------------------------------------------------
D|------------------------------------------------------------------------------------------
A|------------------------------------------------------------------------------------------
E|------------------------------------------------------------------------------------------

e|------18--17--18--17------18--18-17--17-16---17-18-17-18-17-18-17-------------
B|--16------------------19------------------------------------------------------
G|------------------------------------------------------------------------------
D|------------------------------------------------------------------------------
A|------------------------------------------------------------------------------
E|------------------------------------------------------------------------------
      (4:46)
e|----------7--6--------------7--6-------------7--6----------------7-6-8-10--11-11-------------
B|-------6--------7--4-----6--------4-------6--------7--4----6-9--------------------------------
G|----7-----------------7----------------7-----------------------------------------8--8---------
D|----------------------------------------------------------------------------------------------
A|----------------------------------------------------------------------------------------------
E|----------------------------------------------------------------------------------------------

e|------------------------4----11--11---------------------------------||
B|---------4--7--------6----------------------------4--7--------------||
G|---4--4--------6--6-----------------8--8----4--4--------6--6--4--6--||
D|--------------------------------------------------------------------||
A|--------------------------------------------------------------------||
E|--------------------------------------------------------------------||

Добавлено: 10.09.2013
Вам также может быть интересно:
Другие материалы по этой песне:
  • Аккорды и текст

Страница создана 10.09.2013
http://primanota.ru/minibosses/castlevania-1-chords.htm
Привет, Гость.
Предлагаем пройти революционный курс по гитаре.
Подарок от PrimaNota.Ru, забирай!