PrimaNota.ru - самый крупный в мире бесплатный архив песенных текстов, аккордов, табулатур и нот


Miniature Tigers - Like Or Like Like - бас-таба, видео

Регистрация Запомнить меня
Войти через:  Facebook Google Twitter Vk Yandex Mail.ru

Miniature Tigers - Like Or Like Like - бас-таба, видео

Печатать
Просмотров: 58
-------------------------------------------------------------------------------
                    LIKE OR LIKE LIKE - Miniature Tigers
-------------------------------------------------------------------------------
Tabbed by: Misha
E-mail: mishael.c.damsky@gmail.com

Tuning: standard

lots of sliding around in this song!

no bass until the middle of verse 1 (come in after "the middle of June")
G|-----------------------------------------------------------------------------|
D|-12--------------------------------------------------------------------------|
A|-----14-14--12-------------------------/15-17-\14----13--12--h14-------------|
E|----------------14-12-10----12-13-14------------------------------14---------|

chorus                                         x2
G|-----12----12---12---------------------------|-------------------------------|
D|--------------------12p11h12-----------------|-------------------------/11---|
A|--10----10----10-----------------------------|--------------------5-\2-------|
E|------------------------------10--10--10--10-|-\33333333-/55555-5------------|

verse 2               (*couldn't cop to...)
G|-----------------------------------------------------------------------------|
D|--12-\x----------------------------------------------------------------------|
A|------------------------------5-------5--------------------------------------|
E|---------------------*3---5---------------7---5---2--0x----------------------|

chorus 2                                       x2
G|-----12----12---12---------------------------|-------------------------------|
D|--------------------12p11h12-----------------|-------------------------------|
A|--10----10----10-----------------------------|--------------------5-5---5----|
E|------------------------------10--10--10--10-|-\33333333-/55555-5----7-7-----|

instrumental
G|------------------14--14--12---12--h14-p12-12-\11--11h12---------------------|
D|--/12---14-15-16-----------------------------------------11--11--------------|
A|----------------------------------------------------------------14--12-------|
E|-----------------------------------------------------------------------14--12|

chorus 3                                       x2
G|-----12----12---12---------------------------|------------------7------------|
D|--------------------12p11h12-----------------|--55555555-/77777--------------|
A|--10----10----10-----------------------------|--------------------5555-----5-|
E|------------------------------10--10--10--10-|------------------------7777---|



| /  slide up
| \  slide down
| h  hammer-on
| p  pull-off
| x  Mute note
===============================================================================
Добавлено: 30.09.2015
Другие материалы по этой песне:
  • Аккорды и текст

Страница создана 30.09.2015
http://primanota.ru/miniature-tigers/like-or-like-like-2-chords.htm
Привет, Гость.
Предлагаем пройти революционный курс по гитаре.
Подарок от PrimaNota.Ru, забирай!