PrimaNota.ru - самый крупный в мире бесплатный архив песенных текстов, аккордов, табулатур и нот


Mini Mansions - Death Is A Girl - бас-таба, видео

Регистрация Запомнить меня
Войти через:  Facebook Google Twitter Vk Yandex Mail.ru

Mini Mansions - Death Is A Girl - бас-таба, видео

Печатать
Просмотров: 181
Уроки эстрадного вокала в Санкт-Петербурге
-------------------------------------------------------------------------------
                        DEATH IS A GIRL - Mini Mansions
-------------------------------------------------------------------------------

This tab should be quite accurate. There are 2 parts which I am not sure about but the rest sounds good. 
At least it will help as a guide through the whole song and if you have corrections, leave them behind.

The song consists of these 3 riffs.

Intro and Verses (Clean)

G|----------------|----------------|----------------|----------------|
D|----------------|----------------|----------------|----------------|
A|------------8-8-|6-6-6-6-6-6-----|7-7-7-7-8-8-8-8-|6-6-6-6-6-6-----|
E|8-8-8-8-8-8-----|------------4-4-|----------------|------------3-3-|


Pre-Chorus (Clean)
                                   |Not sure about the 8 0's.
G|----------------|----------------|----------------|----------------|
D|----------------|----------------|----------------|----------------|
A|--------77777777|8888888866666666|----------------|----------------|
E|44444444--------|----------------|0000000044444444|3333333311111111|

G|----------------|----------------|
D|----------------|----------------|
A|--------77777777|88888888--------|
E|44444444--------|--------66666666|


Chorus (Turn Distortion/Fuzz on)
                                       /  Not sure again  \
G|------------------|------------------|------------------|
D|--10-8------------|--10-8------------|------10-8--------|
A|-------10-8-8686--|-------10-8-8686--|--6-8------10-8---|
E|8---------------6-|8---------------6-|8---------------6-|


| /  slide up
| \  slide down
| h  hammer-on
| p  pull-off
| ~  vibrato
| +  harmonic
| x  Mute note
===============================================================================
Добавлено: 10.07.2015
Другие материалы по этой песне:
  • Аккорды и текст

Страница создана 10.07.2015
http://primanota.ru/mini-mansions/death-is-a-girl-chords.htm
Привет, Гость.
Предлагаем пройти революционный курс по гитаре.
Подарок от PrimaNota.Ru, забирай!