PrimaNota.ru - самый крупный в мире бесплатный архив песенных текстов, аккордов, табулатур и нот


Mineral - February - текст песни, таба, видео

Регистрация Запомнить меня
Войти через:  Facebook Google Twitter Vk Yandex Mail.ru

Mineral - February - текст песни, таба, видео

Печатать
Просмотров: 521
-------------------------------------------------------------------------------
                             FEBRUARY - Mineral
-------------------------------------------------------------------------------
Tabbed by: kipflip
Email: kipconway@hotmail.com

Tuning: Standard


I could only get one of the guitars for most of the middle parts but it all sounds right.

Guitar 1
e|--------------------------------------------------------------|
B|--------------------------------------------------------------|
G|--------4h5---5p4---------4h5---5p4---------4h5-----5p4-------|
D|---5-----------------5-----------------5----------------------|  x4
A|-3---3------3------2---2------2-------------------------------|
E|-------------------------------------5---5-------5------------|

Guitar 2
e|--------------------------------------------------------------|
B|--------------------------------------------------------------|
G|--------------------------------------5-5-5-5-5-5-5-5---------|
D|--------------------------------------5-5-5-5-5-5-5-5---------|
A|--------------------------------------3-3-3-3-3-3-3-3---------|
E|--------------------------------------------------------------|

Guitar 1   I'm not sure how many notes are played. This is just a general idea.
e|----------------------------------------------------------------|
B|----------------------------------------------------------------|
G|----------------------------------------------------------------|
D|-10/12-12--12-10-9-999910p9-9-10/12-10-9999999-141414141210/12--|
A|----------------------------------------------------------------|
E|----------------------------------------------------------------|

e|-----------------------------------------------------------------------------|
B|-----------------------------------------------------------------------------|
G|-------------------------------------------------------------------------12-|
D|-19-17\16-16-17-12-121212121091099999\777/99999/121212\99999\777/99999-12--12|
A|-----------------------------------------------------------------------------|
E|-----------------------------------------------------------------------------|



Guitar 1
e|------------------------|
B|------------------------|
G|---7----7----4----------|
D|---7-x8-7-x8-4-x8-7-----| x4
A|---5----4----2----7-x8--|
E|------------------5-----|

Guitar 1
e|---------------------------------------------------------------|
B|---------------------------------------------------------------|
G|-----------14------14-12-9/11-11------11-11-11-11-121211-11----|
D|-------12------12------------------x3--------------------------|  x2
A|---------12------12--------------------------------------------|
E|-9/10--------10(bass plays the parts on this string I think)---|

                  (on every 4th time, 15 plays all the way through)
Guitar 1                            \/
e|--------------------------|---------------------------------------|
B|--------------------------|-15151515151515151514141414141414--x16-|
G|-11-11-1112121211-11-11---|---------------------------------------|
D|--------------------------|---------------------------------------|
A|--------------------------|---------------------------------------|
E|--------------------------|---------------------------------------|
                                        /\
                              Played at same time
Guitar 2                                \/
e|-----------------------------------------------------------|
B|-----------------------------------------------------------|
G|------------------12-------11-----7------------------------|  x4
D|------------------10--x8---9--x8--5--x16-------------------|
A|------------------10-------9------5------------------------|
E|-----------------------------------------------------------|

Guitar 1
e|----------------------------------------------------------|
B|----------------------------------------------------------|
G|--19------18--------19------21------19-------14-----------|
D|-----x8------x16-------x8------x9------x7-------x16-------|  x4
A|--17------16--------17------19------17-------12-----------|
E|----------------------------------------------------------|

Guitar 2 listen for when to play this part
e|--------------------------------------------------------------|
B|--------------------------------------------------------------| (part in ""
G|--------------------------------------------------------------| is left out
D|--14-17-16-14---14-16-17-16----14-17-16-14----"14-16-17-16"---| on the last   x2
A|--------------------------------------------------------------| time)
E|--------------------------------------------------------------|

Guitar 2
e|----------------------------------------------------------|
B|----------------------------------------------------------|
G|--19------19------16------14------------------------------|
D|--17-x16--16-x16--14-x16--12-x16--------------------------| x2
A|--17------16------14------12------------------------------|
E|----------------------------------------------------------|

| /  slide up
| \  slide down
| h  hammer-on
| p  pull-off
| x  number of times played
Добавлено: 16.05.2012
Другие материалы по этой песне:
  • Аккорды и текст

Страница создана 10.05.2012
http://primanota.ru/mineral/february-chords.htm
Привет, Гость.
Предлагаем пройти революционный курс по гитаре.
Подарок от PrimaNota.Ru, забирай!