PrimaNota.ru - самый крупный в мире бесплатный архив песенных текстов, аккордов, табулатур и нот


Mindless Self Indulgence - Stupid Mf - текст песни, таба, бас-таба, видео

Регистрация Запомнить меня
Войти через:  Facebook Google Twitter Vk Yandex Mail.ru

Mindless Self Indulgence - Stupid Mf - текст песни, таба, бас-таба, видео

Печатать
Просмотров: 184
e|-----------------|
B|-----------------|
G|---5---5---5-----|
D|-6---5---5-----3-|
A|-----------------|
D|-----------------|

   Verse   0:06
e|-------------------------------------|
B|-------------------------------------|
G|-------------------------------------|
D|-6-6-6--10--3-3--6-6-6--10--3-3------|
A|-6-6-6--10--3-3--6-6-6--10--3-3------|
D|-6-6-6--10--3-3--6-6-6--10--3-3------|
   I said, Is it simple enough for you,

   0:19
e|---------------------------|
B|---------------------------|
G|---------------------------|
D|-8--7--2--2-7--------------|
A|-8--7--2--2-7--------------|
D|-8--7--2--2-7--------------|
   Should I talk slower like you're a retard?

   0:25
e|---------------------------|
B|---------------------------|
G|---------------------------|
D|-9-9--9-9--12-12--7-7------|
A|-9-9--9-9--12-12--7-7------|
D|-9-9--9-9--12-12--7-7------|2X
   You think, think you're dumb I think you're smart

   0:38
e|---------------------------|
B|---------------------------|
G|---------------------------|
D|-5--8--10--12-12-12-12-12--|
A|-5--8--10--12-12-12-12-12--|
D|-5--8--10--12-12-12-12-12--|2X
   Get it? Get it? Get it? You just don't get it.

   0:44
e|-----------------------------------------------|
B|-----------------------------------------------|
G|-----------------------------------------------|
D|-8-8-8--6-6-6--5-----5-5-5--8-8-8--6-6-6--5----|
A|-8-8-8--6-6-6--5-----5-5-5--8-8-8--6-6-6--5----|
D|-8-8-8--6-6-6--5-----5-5-5--8-8-8--6-6-6--5----|
   Stupid motherf****r

   0:55
e|--------------------------------------|
B|--------------------------------------|
G|--------------------------------------|
D|-6-6-6--10--3-3--6-6-6--10--3-3-------|
A|-6-6-6--10--3-3--6-6-6--10--3-3-------|
D|-6-6-6--10--3-3--6-6-6--10--3-3-------|
   Is it simple enough for you,

   1:08
e|---------------------------|
B|---------------------------|
G|---------------------------|
D|-8--7--2--2-7--------------|
A|-8--7--2--2-7--------------|
D|-8--7--2--2-7--------------|
   Should I talk slower like you're a retard?

   1:14
e|---------------------------|
B|---------------------------|
G|---------------------------|
D|-9-9--9-9--12-12--7-7------|
A|-9-9--9-9--12-12--7-7------|
D|-9-9--9-9--12-12--7-7------|2X
   You think, think you're dumb I think you're smart


   1:27
e|---------------------------|
B|---------------------------|
G|---------------------------|
D|-5--8--10--12-12-12-12-12--|
A|-5--8--10--12-12-12-12-12--|
D|-5--8--10--12-12-12-12-12--|2X
   Get it? Get it? Get it? You just don't get it.

   1:33
e|-----------------------------------------------|
B|-----------------------------------------------|
G|-----------------------------------------------|
D|-8-8-8--6-6-6--5-----5-5-5--8-8-8--6-6-6--5----|
A|-8-8-8--6-6-6--5-----5-5-5--8-8-8--6-6-6--5----|
D|-8-8-8--6-6-6--5-----5-5-5--8-8-8--6-6-6--5----|
   Stupid motherf****r


   1:50
e|------------------------------------------|
B|------------------------------------------|
G|------------------------------------------|
D|-5--5-5---8--8-8---7--7-7---10--10-10-----|
A|-5--5-5---8--8-8---7--7-7---10--10-10-----|
D|-5--5-5---8--8-8---7--7-7---10--10-10-----|2X
   It's under your nose

   2:00
e|-----------------------------------------------|
B|-----------------------------------------------|
G|-----------------------------------------------|
D|-8-8-8--6-6-6--5-----5-5-5--8-8-8--6-6-6--5----|
A|-8-8-8--6-6-6--5-----5-5-5--8-8-8--6-6-6--5----|
D|-8-8-8--6-6-6--5-----5-5-5--8-8-8--6-6-6--5----|
   Stupid motherf****r

   2:11
e|-------------------------------------|
B|-------------------------------------|
G|-------------------------------------|
D|-6-6-6--10--3-3--6-6-6--10--3--------|
A|-6-6-6--10--3-3--6-6-6--10--3--------|
D|-6-6-6--10--3-3--6-6-6--10--3--------|

I wasn't a member when I submitted this the first time, so I am re-submitting them. Once 
this is the complete Drop D version. If anyone finds any flws please e-mail me at 
thank you. Rock on!
Добавлено: 12.03.2012
Другие материалы по этой песне:

Страница создана 06.03.2012
http://primanota.ru/mindless-self-indulgence/stupid-mf-chords.htm
Привет, Гость.
Предлагаем пройти революционный курс по гитаре.
Подарок от PrimaNota.Ru, забирай!