PrimaNota.ru - самый крупный в мире бесплатный архив песенных текстов, аккордов, табулатур и нот


Mindless Self Indulgence - Straight To Video - текст песни, таба, бас-таба, видео

Регистрация Запомнить меня
Войти через:  Facebook Google Twitter Vk Yandex Mail.ru

Mindless Self Indulgence - Straight To Video - текст песни, таба, бас-таба, видео

Печатать
Просмотров: 136
This songs on "You'll Rebel To Anything"--The intro is played on piano but this is translated for guitar.

Normal Tunning

Intro
|--------------------------------------------------------|
|--------------------------------------------------------|
|--------------------------------------------------------|
|--------------------------------------------------------|
|7-7-10-7-9-7-5--5-7-5-7-5-3--2-3-2-3-2-0--0---0---0-----|
|--------------------------------------------3---2---0---|

Verse
|-----------------------------|
|-----------------------------|
|-----------------------------|
|2-2-2---5-5-5---7-7-7---5-5-5|
|2-2-2---5-5-5---7-7-7---5-5-5|
|0-0-0---3-3-3---5-5-5---3-3-3|

Chorus
|-----------------------|
|-----------------------|
|-----------------------|
|2-----7/5-----9-----4/2|
|2-----7/5-----9-----4/2|
|0-----5/3-----7-----2/0|

Enjoy
Добавлено: 04.12.2013
Другие материалы по этой песне:

Страница создана 24.03.2012
http://primanota.ru/mindless-self-indulgence/straight-to-video-chords.htm
Привет, Гость.
Предлагаем пройти революционный курс по гитаре.
Подарок от PrimaNota.Ru, забирай!