PrimaNota.ru - самый крупный в мире бесплатный архив песенных текстов, аккордов, табулатур и нот


Mindless Self Indulgence - Revenge - текст песни, таба, бас-таба, видео

Регистрация Запомнить меня
Войти через:  Facebook Google Twitter Vk Yandex Mail.ru

Mindless Self Indulgence - Revenge - текст песни, таба, бас-таба, видео

Печатать
Просмотров: 176
Tab Legend:
----------------
(.) - Palm muted
 X  - Dead note
(/) - Slide up
(\) - Slide down
(~) - Hold note for while
 L  - Long note
 s  - Short note

7.Revenge:
------------
                                                    
               ELEVENS
                 AND
             A THIRTEEN                                                
                  |                                        
                  |                                     
                 \ /                            ss  ss  ss  ss      ss  ss  ss  ss   
e|||-888886--111111111113-|-444442--999998----|-------------------|-------------------|
B|||----------------------|-------------------|-------------------|-------------------|
G|||----------------------|-------------------|-------------------|-------------------|
D|||----------------------|-------------------|-33--66--33--66----|-33--66--33--66----|
A|||----------------------|-------------------|-33--66--33--66----|-33--66--33--66----|
E|||----------------------|-------------------|-11--44--11--44----|-11--44--11--44----|
   |                    x3|
   |----------------------|



                                                  elevens
-------------------|-------------------|-888886--11111111119-|-444442--999998----|
-------------------|-------------------|---------------------|-------------------|
-------------------|-------------------|---------------------|-------------------|
-3333333366666666--|-44444444----------|---------------------|-------------------|
-3333333366666666--|-44444444----------|---------------------|-------------------|
-1111111144444444--|-22222222--2/12\---|---------------------|-------------------|
pm............................

                                                              
                  |                                        
                  |                                     
                 \ /                        ss  ss  ss  ss      ss  ss  ss  ss   
-888886--111111111113-|-444442--999998----|-------------------|-------------------|
----------------------|-------------------|-------------------|-------------------|
----------------------|-------------------|-------------------|-------------------|
----------------------|-------------------|-33--66--33--66----|-33--66--33--66----|
----------------------|-------------------|-33--66--33--66----|-33--66--33--66----|
----------------------|-------------------|-11--44--11--44----|-11--44--11--44----|
                    x3|
----------------------|



                                                  elevens
-------------------|-------------------|-888886--11111111119-|-444442--999998----|
-------------------|-------------------|---------------------|-------------------|
-------------------|-------------------|---------------------|-------------------|
-3333333366666666--|-44444444----------|---------------------|-------------------|
-3333333366666666--|-44444444----------|---------------------|-------------------|
-1111111144444444--|-22222222--2/12\---|---------------------|-------------------|
pm............................

                  |                                        
                  |                                     
                 \ /                            
-888886--111111111113-|-444442--999998----|----------------------|-------------------|
----------------------|-------------------|----------------------|-------------------|
----------------------|-------------------|----------------------|-------------------|
----------------------|-------------------|-8-8-86-6-64-4-46-6-6-|-4444444466666666--|
----------------------|-------------------|-8-8-86-6-64-4-46-6-6-|-4444444466666666--|
----------------------|-------------------|-6-6-64-4-42-2-24-4-4-|-2222222244444444--|
                    x3|                   |                    x2|
----------------------|                   |----------------------|




     
-------------------|-------------------|-------------------|-------------------|
-------------------|-------------------|-------------------|-------------------|
-------------------|-------------------|-------------------|-------------------|
-8888888844444444--|-4444444466666666--|-8888888811111111--|-------------------|
-8888888844444444--|-4444444466666666--|-8888888811111111--|-------------------|
-6666666622222222--|-2222222244444444--|-6666666699999999--|-------------------|


                  |                                        
                  |                                     
                 \ /                            
-888886--111111111113-|-444442--999998----|----------------------|-------------------|
----------------------|-------------------|----------------------|-------------------|
----------------------|-------------------|----------------------|------FINITO!------|
----------------------|-------------------|-8-8--6-6--4-4--6-6---|-------------------|
----------------------|-------------------|-8-8--6-6--4-4--6-6---|-------------------|
----------------------|-------------------|-6-6--4-4--2-2--4-4---|-------------------|
                    x3|                   |                    x2|
----------------------|                   |----------------------|
Добавлено: 11.11.2013
Другие материалы по этой песне:

Страница создана 29.06.2012
http://primanota.ru/mindless-self-indulgence/revenge-chords.htm
Привет, Гость.
Предлагаем пройти революционный курс по гитаре.
Подарок от PrimaNota.Ru, забирай!