PrimaNota.ru - самый крупный в мире бесплатный архив песенных текстов, аккордов, табулатур и нот


Mindless Self Indulgence - Prom - текст песни, таба, бас-таба, видео

Регистрация Запомнить меня
Войти через:  Facebook Google Twitter Vk Yandex Mail.ru

Mindless Self Indulgence - Prom - текст песни, таба, бас-таба, видео

Печатать
Просмотров: 140
Prom
Tuning: Drop D
Tabbed By: AnthonyFMiller

   Intro/Verse   0:00
e|---------------------------------------|
B|---------------------------------------|
G|-11--13--8----7--6---11--13--8----7--6-|
D|--9--11--6----5--4----9--11--6----5--4-|
A|---------------------------------------|
D|---------------------------------------|4X
   Everyone in highschool will worship

   0:16
e|---------------------------------------|
B|---------------------------------------|
G|-5---10---9---4---5---10---9---4-------|
D|-5---10---9---4---5---10---9---4-------|
A|-3----8---7---2---3----8---7---2-------|
D|---------------------------------------|
   You make me hard 4X

   0:26
e|---------------------------------------|
B|---------------------------------------|
G|---------------------------------------|
D|--7-7-7---5-5-5---3-3-3---2-2-2--------|
A|--7-7-7---5-5-5---3-3-3---2-2-2--------|
D|--7-7-7---5-5-5---3-3-3---2-2-2--------|3X
   So now I'm

   0:35
e|-----------------------------------------------------------------|
B|-----------------------------------------------------------------|
G|-7-7-7-7--9-9-9-9--11-11-11-11--6-6-6-6--7-7-7-7---4-4--4-4--4-4-|
D|-7-7-7-7--9-9-9-9--11-11-11-11--6-6-6-6--7-7-7-7---4-4--4-4--4-4-|
A|-5-5-5-5--7-7-7-7---9--9--9--9--4-4-4-4--5-5-5-5---2-2--2-2--2-2-|
D|-----------------------------------------------------------------|
   Cause I'll be ffucking at the best prom ever

   0:47
e|---------------------------------------|
B|---------------------------------------|
G|---------------------------------------|
D|--7-7-7---5-5-5---3-3-3---2-2-2--------|
A|--7-7-7---5-5-5---3-3-3---2-2-2--------|
D|--7-7-7---5-5-5---3-3-3---2-2-2--------|3X
   So now I'm

   0:55
e|-----------------------------------------------------------------|
B|-----------------------------------------------------------------|
G|-7-7-7-7--9-9-9-9--11-11-11-11--6-6-6-6--7-7-7-7---4-4--4-4------|
D|-7-7-7-7--9-9-9-9--11-11-11-11--6-6-6-6--7-7-7-7---4-4--4-4------|
A|-5-5-5-5--7-7-7-7---9--9--9--9--4-4-4-4--5-5-5-5---2-2--2-2------|
D|-----------------------------------------------------------------|
   Cause I'll be ffucking at the best prom ever

   1:04
e|--------------------------------------------|
B|--------------------------------------------|
G|--11-11-11-11--6-6-6-6--7-7-7-7---4-4--4-4--|
D|--11-11-11-11--6-6-6-6--7-7-7-7---4-4--4-4--|
A|---9--9--9--9--4-4-4-4--5-5-5-5---2-2--2-2--|
D|--------------------------------------------|
   (no lyrics)

   1:12
e|---------------------------------------|
B|---------------------------------------|
G|-11--13--8----7--6---11--13--8----7--6-|
D|--9--11--6----5--4----9--11--6----5--4-|
A|---------------------------------------|
D|---------------------------------------|2X
   Everyone in highschool will worship

   1:23
e|---------------------------------------|
B|---------------------------------------|
G|-5---10---9---4---5---10---9---4-------|
D|-5---10---9---4---5---10---9---4-------|
A|-3----8---7---2---3----8---7---2-------|
D|---------------------------------------|1X
   You make me hard 4X

   1:33
e|---------------------------------------|
B|---------------------------------------|
G|---------------------------------------|
D|--7-7-7---5-5-5---3-3-3---2-2-2--------|
A|--7-7-7---5-5-5---3-3-3---2-2-2--------|
D|--7-7-7---5-5-5---3-3-3---2-2-2--------|3X
   So now I'm

   1:41
e|-----------------------------------------------------------------|
B|-----------------------------------------------------------------|
G|-7-7-7-7--9-9-9-9--11-11-11-11--6-6-6-6--7-7-7-7---4-4--4-4--4-4-|
D|-7-7-7-7--9-9-9-9--11-11-11-11--6-6-6-6--7-7-7-7---4-4--4-4--4-4-|
A|-5-5-5-5--7-7-7-7---9--9--9--9--4-4-4-4--5-5-5-5---2-2--2-2--2-2-|
D|-----------------------------------------------------------------|1X
   Cause I'll be ffucking at the best prom ever

   1:55
e|----------------------------------------------------|
B|----------------------------------------------------|
G|-7-7-7-7--9-9-9-9--11-11-11-11--6-6-6-6--7-7-7-7----|
D|-7-7-7-7--9-9-9-9--11-11-11-11--6-6-6-6--7-7-7-7----|
A|-5-5-5-5--7-7-7-7---9--9--9--9--4-4-4-4--5-5-5-5----|
D|----------------------------------------------------|1X
   Best prom ever

   2:03
e|-------------------------------------------------------------------|
B|-------------------------------------------------------------------|
G|-7/97/10-10--7/97/10-10--7/97/10-10--9/1097-7----------------------|
D|-7/97/10-10--7/97/10-10--7/97/10-10--9/1097-7----------------------|
A|-5/75/-8--8--5/75/-8--8--5/75/-8--8--7/-875-5----------------------|
D|-------------------------------------------------------------------|2X
   Guess what, girlfriend, you have got nothing on me, whore

   2:14
e|-----------------------------------------------------------------|
B|-----------------------------------------------------------------|
G|-7-7-7-7--9-9-9-9--11-11-11-11--6-6-6-6--7-7-7-7---4-4--4-4--4-4-|
D|-7-7-7-7--9-9-9-9--11-11-11-11--6-6-6-6--7-7-7-7---4-4--4-4--4-4-|
A|-5-5-5-5--7-7-7-7---9--9--9--9--4-4-4-4--5-5-5-5---2-2--2-2--2-2-|
D|-----------------------------------------------------------------|1X
   Best prom ever.


Everyone in highschool will worship
The ffucking ground I walk on
If it was up to me

I'll never be a target
I'll never be a ffucking virgin
But it's not up to me

You make me hard
You make me hard
You make me hard
You make me hard

So now I'm (woooo)
We got the limo (woooo)
I'm running (woooo)

'Cause I'll be ffucking at the
Best prom ever

So now I'm (woooo)
We got the limo (woooo)
I'm running (woooo)

'Cause I'll be ffucking at the
Best prom ever

Everyone in highschool will worship
The ffucking ground I walk on
If it was up to me

I'll never be a target
I'll never be a ffucking virgin
But it's not up to me

You make me hard
You make me hard
You make me hard
You make me hard

So now I'm (woooo)
We got the limo (woooo)
I'm running (woooo)

'Cause I'll be ffucking at the
Best prom ever
Best prom ever

Guess what, girlfriend
You have got nothing on me, whore
You won't be missed
So get the whole ffucking thing over with

Best prom ever
Добавлено: 02.11.2013
Другие материалы по этой песне:
  • Аккорды и текст

Страница создана 20.04.2012
http://primanota.ru/mindless-self-indulgence/prom-chords.htm
Привет, Гость.
Предлагаем пройти революционный курс по гитаре.
Подарок от PrimaNota.Ru, забирай!