PrimaNota.ru - самый крупный в мире бесплатный архив песенных текстов, аккордов, табулатур и нот


Mindless Self Indulgence - Bitches - текст песни, таба, бас-таба, видео

Регистрация Запомнить меня
Войти через:  Facebook Google Twitter Vk Yandex Mail.ru

Mindless Self Indulgence - Bitches - текст песни, таба, бас-таба, видео

Печатать
Просмотров: 293
I looked over Mushroomknot's tab and found that some parts were not tabbed correctly. 
is the tab with the corrections I made in Drop D.


Verse x4
E--------------------------------------|
B--------------------------------------|
G--------------------------------------|
D-12-12-------------------------18/19--|
A-12-12-------------------------18/19--|
D-12-12-------------------------18/19--|
Bitches love me cause?

Chorus x4
E-------------------------------|
B-------------------------------|
G-------------------------------|
D-------------------------------|
A-------------------------------|
D--0-3-0-3-0-1-0-1-0-4-3--------|
Throughout the projects

Before Verse 2 and bridge
E------------------------|
B------------------------|
G------------------------|
D----12-----12-----------|
A----12-----12-----------|
D----12-----12-----------|

Verse x4
Chorus x4

Chorus part 2   x2 then x3
E------------------------|-------------------|
B------------------------|-------------------|
G------------------------|-------------------|
D------------------------|-0-3-0-3-1-0-------|
A------------------------|-------------------|
D-0-3-0-3-0-1-0-1--------|-------------------|

Bridge part 1 x2
E-------------------------------------------|
B-------------------------------------------|
G-------------------------------------------|
D--12-12/13--12-12/13--12-12/13--13-13-13-13|
A--12-12/13--12-12/13--12-12/13--13-13-13-13|
D--12-12/13--12-12/13--12-12/13--13-13-13-13|

Bridge part 2 x5
E----------------------------------------------------------------|
B----------------------------------------------------------------|
G----------------------------------------------------------------|
D-12--14--12--14--12--10--15--12--15--12--18--19-----------------|
A-12--14--12--14--12--10--15--12--15--12--18--19-----------------|
D-12--14--12--14--12--10--15--12--15--12--18--19-----------------|

Bridge part 3 x4
E------|------------------------------|
B------|------------------------------|
G------|------------------------------|
D------|------------------------------|
A------|------------------------------|
D-5-7--|-0-0--12-12-10-10-----5-7-----|

Chorus x2
Chorus part 2
Добавлено: 12.11.2013
Другие материалы по этой песне:
  • Аккорды и текст

Страница создана 19.05.2012
http://primanota.ru/mindless-self-indulgence/bitches-chords.htm
Привет, Гость.
Предлагаем пройти революционный курс по гитаре.
Подарок от PrimaNota.Ru, забирай!