PrimaNota.ru - самый крупный в мире бесплатный архив песенных текстов, аккордов, табулатур и нот


Mindless Self Indulgence - Alienating My Audience - таба, видео

Регистрация Запомнить меня
Войти через:  Facebook Google Twitter Vk Yandex Mail.ru

Mindless Self Indulgence - Alienating My Audience - таба, видео

Печатать
Просмотров: 79
Intro part

6:--3----7----3----7----3----7----3----7----3----7----3----7-|
5:--3----7----3----7----3----7----3----7----3----7----3----7-|
4:-----------------------------------------------------------|
3:-----------------------------------------------------------|
2:-----------------------------------------------------------|
1:-----------------------------------------------------------|

Part when he starts screaming BEFORE I START!!!

6:---------------------------------------------------------|
5:--6666--7777--6666--3333--6666--7777--6666--3333---------|
4:--8888--9999--8888--5555--8888--9999--8888--5555---------|
3:---------------------------------------------------------|
2:---------------------------------------------------------|
1:---------------------------------------------------------|

NEXT little PART

6:---------------------------------------------------------|
5:--3333-------------------------3333----------------------|
4:--5555-------------------------5555----------------------|
3:---------------------------------------------------------|
2:---------------------------------------------------------|
1:---------------------------------------------------------|

The part when he sings will this person ever learn

6:--777----------------777---------------777--------------|
5:--777--666--333333---777--666--333333--777--666--333333-|
4:-------888--555555--------888--555555-------888--555555-|
3:--------------------------------------------------------|
2:--------------------------------------------------------|
1:--------------------------------------------------------|

next part when sings a melody with his high pitched voice
   Repeat 2x
6:-------------------------------------------------|
5:--6666--7-0--6666--7-0---3333--4-0--3333--4-0----|
4:--8888--9-0--8888--9-0---5555--6-0--5555--6-0----|
3:-------------------------------------------------|
2:-------------------------------------------------|
1:-------------------------------------------------|

Next part

6:--5/7-----------5/7---------------------------------|
5:--5/7-----------5/7---------------------------------|
4:----------------------------------------------------|
3:----------------------------------------------------|
2:----------------------------------------------------|
1:----------------------------------------------------|

Intro

6:--3----7----3----7----3----7----3----7----3----7----3----7-|
5:--3----7----3----7----3----7----3----7----3----7----3----7-|
4:-----------------------------------------------------------|
3:-----------------------------------------------------------|
2:-----------------------------------------------------------|
1:-----------------------------------------------------------|


6:---------------------------------------------------------|
5:--6666--7777--6666--3333--6666--7777--6666--3333---------|
4:--8888--9999--8888--5555--8888--9999--8888--5555---------|
3:---------------------------------------------------------|
2:---------------------------------------------------------|
1:---------------------------------------------------------|


6:---------------------------------------------------------|
5:--3333-------------------------3333----------------------|
4:--5555-------------------------5555----------------------|
3:---------------------------------------------------------|
2:---------------------------------------------------------|
1:---------------------------------------------------------|

6:--777----------------777---------------777--------------|
5:--777--666--333333---777--666--333333--777--666--333333-|
4:-------888--555555--------888--555555-------888--555555-|
3:--------------------------------------------------------|
2:--------------------------------------------------------|
1:--------------------------------------------------------|


6:------------------------------------------------------|
5:-6666--7-0---6666--7-0---6666--7-0---6666--7-0--------|
4:-8888--9-0---8888--9-0---8888--9-0---6666--9-0--------|
3:------------------------------------------------------|
2:------------------------------------------------------|
1:------------------------------------------------------|

6:---------------------------------------------------------|
5:--3333-------------------------3333----------------------|
4:--5555-------------------------5555----------------------|
3:---------------------------------------------------------|
2:---------------------------------------------------------|
1:---------------------------------------------------------|

outro
6:--777----------------777---------------777--------------|
5:--777--666--333333---777--666--333333--777--666--333333-|
4:-------888--555555--------888--555555-------888--555555-|
3:--------------------------------------------------------|
2:--------------------------------------------------------|
1:--------------------------------------------------------|

6:-------------------------------------------------|
5:--6666--7-0--6666--7-0---3333--4-0--3333--4-0----|
4:--8888--9-0--8888--9-0---5555--6-0--5555--6-0----|
3:-------------------------------------------------|
2:-------------------------------------------------|
1:-------------------------------------------------|

End
6:--5/7-----------5/7--------5/7-------5/7------------|
5:--5/7-----------5/7--------5/7-------5/7------------|
4:----------------------------------------------------|
3:----------------------------------------------------|
2:----------------------------------------------------|
1:----------------------------------------------------|


Imma big fan of msi and no one has been putting new tabs for this band so hope you guys like it
Добавлено: 30.10.2013
Другие материалы по этой песне:
  • Аккорды и текст

Страница создана 30.10.2013
http://primanota.ru/mindless-self-indulgence/alienating-my-audience-chords.htm
Привет, Гость.
Предлагаем пройти революционный курс по гитаре.
Подарок от PrimaNota.Ru, забирай!