PrimaNota.ru - самый крупный в мире бесплатный архив песенных текстов, аккордов, табулатур и нот


Minatori - Si Shiu Ne Xhama Qe Bjen - таба, видео

Регистрация Запомнить меня
Войти через:  Facebook Google Twitter Vk Yandex Mail.ru

Minatori - Si Shiu Ne Xhama Qe Bjen - таба, видео

Печатать
Просмотров: 126
Minatori - Si Shiu Ne Xhama Qe Bjen
Danny Boy

Intro përcjellet më këto akorde: C#m B A B

E------------------------------|
B-----5p4--2-------------------|
G-----6p4--2-------------------|  X 2
D------------------------------|
A------------------------------|
E------------------------------|

  …………… p.m (palm mute)
E-----------------------------------|
B-----9--5---0--2-------------------|
G--------6---4--2-------------------|
D-----------------------------------|
A-----------------------------------|
E-----------------------------------|

E------------------------------|
B-----5-0--2-------------------|
G-----6-4--2-------------------|
D------------------------------|
A------------------------------|
E------------------------------|

Violin Solo i transformuar për kitarë

E-----16-14-12----------12-11-14----|
B--14----------14-12-14-------------|
G-----------------------------------|
D-----------------------------------|
A-----------------------------------|
E-----------------------------------|


E-----16-14-12----------12-11-------|
B--14----------14-12-14--------12---|
G-----------------------------------|
D-----------------------------------|
A-----------------------------------|
E-----------------------------------|

C#m          A         B         C#m
Ti je sikur drita e diellit te pare
          A     B       C#m
Sikur shiu ne token e pare
          A    B       C#m
si nje lajm i mire ne fund

Solo i shkurtër
E-----------------------------------|
B--9-7--------------7---------------|
G------9-6---6-9-8------------------|
D-----------9-----------------------|
A-----------------------------------|
E-----------------------------------|

Ti je si nje zog qe fluturon
Nje sy qe lotin pikon
Dashuri qe ndodhe vetem nje here

E une te pres,sikur nata ne sy qe vdes
Si nje yll qe shuhet ne det
Dashuri qe ndodhe vetem nje here

Te shikoj,sikur shiu qe ne xhamat bjen
Sa e bukur,e embel me vjen
Sa e bukur e embel me je

G#             AII         G#  C#m    kalimi  C#5 B5 A5
Ti e din se jeta nuk eshte aventure

AII              Fm       C#m    C#5  B5
Ditet vijne dhe shkojne askund.


Akordet janë:

C#m:    x46654
B:      x24442
A:      x02220
G#:     466544
AII:    577655
F#m:    244222
C#5:    x466
B5:     x244
A5:     x022


Enjoy!
Lidhur me këngën, më kontaktoni në: fidan.kosumi@gmail.com

All the best!
Добавлено: 19.06.2012
Другие материалы по этой песне:
  • Аккорды и текст

Страница создана 19.06.2012
http://primanota.ru/minatori/si-shiu-ne-xhama-qe-bjen-chords.htm
Привет, Гость.
Предлагаем пройти революционный курс по гитаре.
Подарок от PrimaNota.Ru, забирай!