PrimaNota.ru - самый крупный в мире бесплатный архив песенных текстов, аккордов, табулатур и нот


Minatori - Nuk Besoj N Politik - таба, видео

Регистрация Запомнить меня
Войти через:  Facebook Google Twitter Vk Yandex Mail.ru

Minatori - Nuk Besoj N Politik - таба, видео

Печатать
Просмотров: 101
Minatori – Nuk besoj në politikë

Intro:

          G   Em    C   D
e-------3---0--------0--2---|
b--------3---0-----1-----3--|
g-------------0-----------2-|
d----------------------0----|
a--2-0-----------3----------|
e------3---0----------------|

G       C   G      D
Nuk besoj në politikë
G            C    G        D
në fjalë të kota, kibernetikë...

Akordet gjatë strofës luhen kështu:

  G    C   G    D
e--3---0----3---2----|
b---3---1----3---3---|
g--------0--------2--|
d--------------0-----|
a-----3--------------|
e-3--------3---------|

Pastaj:

e-------3---0-------0---2---|
b--------3---0----1------3--|
g-------------0-----------2-|
d---------------------0-----|
a---------------3-----------|
e-----3----0----------------|

Më ndihmoooo, t'lutem më besoooo...


Bridge: (Bm C Am D)
Bm           C       Am              D
Më ndihmo të lutem, të mos bëhem si ata
solo:

e-------12-10-------------------------12-10----------------------------
b-\12----------10-12----8—10b-10------------10-12----------------------
g---/12---------------9------------------------------------------------
d----------------------------------------------------5-----7-7-5-------
a-------------------------------------------------/7---7---------------
e----------------------------------------------------------------------

e--12-10---------------------------------------------------------------
b---------10-12----8-8--10b-8---------8-10-10b-8-10--10-8--------------
g----------------9------------9-----9---------------------9------------
d----------------------------------------------------------------------
a----------------------------------------------------------------------
e----------------------------------------------------------------------



G    320033
D    x00232
C    332010
Em   022000
Bm   x24432
Am   002210


Solo tablaturat do ti postoj se shpejti.

all the best from Danny boy
fidan.kosumi@gmail.com
Добавлено: 22.05.2012
Другие материалы по этой песне:
  • Аккорды и текст

Страница создана 22.05.2012
http://primanota.ru/minatori/nuk-besoj-n-politik-chords.htm
Привет, Гость.
Предлагаем пройти революционный курс по гитаре.
Подарок от PrimaNota.Ru, забирай!