PrimaNota.ru - самый крупный в мире бесплатный архив песенных текстов, аккордов, табулатур и нот


Mimikry - Politik - таба, видео

Регистрация Запомнить меня
Войти через:  Facebook Google Twitter Vk Yandex Mail.ru

Mimikry - Politik - таба, видео

Печатать
Просмотров: 97
Hi there this my first tab so it wont be good but anyways xD

Song:Politik
Artist:Mimikry
Album:Äggröran 5

Play whole song with high distortion.

Intro, and the verse:

e|----------------------------------|
b|----------------------------------|
g|----------------------------------|
d|--5-4-2--5-4-2-2--5-4-2--5-4-2-2--|  x2
a|--5-4-2--5-4-2-2--5-4-2--5-4-2-2--|
E|--3-2-0--3-2-0-0--3-2-0--3-2-0-0--|                                 2
                                                                     2
But the last time u hold on on the Em, until it starts again. (Em is 0)

Then u can figure out how many times all this is played.

Then the Pre-chorus:

e|--------------------------------------|
b|--------------------------------------|
g|--5-5-5-5--7-7-7-7--5-5-5-5-----------|
d|--5-5-5-5--7-7-7-7--5-5-5-5--5-5-5-5--|
a|--3-3-3-3--5-5-5-5--3-3-3-3--5-5-5-5--|
E|-----------------------------3-3-3-3--|

e|--------------------------------------|
b|--------------------------------------|
g|--5-5-5-5--7-7-7-7--5-5-5-5--7-7-7-7--|
d|--5-5-5-5--7-7-7-7--5-5-5-5--7-7-7-7--|
a|--3-3-3-3--5-5-5-5--3-3-3-3--5-5-5-5--|
E|--------------------------------------|

Chorus:

e|----------------------------------|
b|----------------------------------|
g|---------5-5----7-7-7-7-----------|
d|--5-5----5-5----7-7-7-7--5-5-5-5--|
a|--5-5----3-3----5-5-5-5--5-5-5-5--|
E|--3-3--------------------3-3-3-3--|

e|-----------------------------|
b|-----------------------------|
g|-----------5-5-5-5--7-7-7-7--|
d|--5-5-5-5--5-5-5-5--7-7-7-7--|
a|--5-5-5-5--3-3-3-3--5-5-5-5--|
E|--3-3-3-3--------------------|

Bridge:

e|-------------------------------|
b|-------------------------------|
g|-------------------------------|
d|--5-4-2-2-2-2-2-2-2-2-2-2-2----|
a|--5-4-2-2-2-2-2-2-2-2-2-2-2----|
E|--3-2-0-0-0-0-0-0-0-0-0-0-0----|
         *Palm muted-------------|

Last part:

e|-----------------------|
b|-----------------------|
g|------------------5-5--|
d|--5-5-5-5--5-5----5-5--|
a|--5-5-5-5--5-5----3-3--|
E|--3-3-3-3--3-3---------|

This is how u play this song:

1. Intro
2. Verse
3. Pre-chorus
4. Chourus
5. Verse
6. Pre-chorus
7. Chorus
8. Bridge
9. Pre-chorus
10. Chorus
11. Last part


There ya go, hope this sounds right maybe there is some wrong parts i dont know... Well 
its a great song ^^


/Sumftw
Добавлено: 04.03.2012
Другие материалы по этой песне:
  • Аккорды и текст

Страница создана 04.03.2012
http://primanota.ru/mimikry/politik-chords.htm
Привет, Гость.
Предлагаем пройти революционный курс по гитаре.
Подарок от PrimaNota.Ru, забирай!