PrimaNota.ru - самый крупный в мире бесплатный архив песенных текстов, аккордов, табулатур и нот


Mimicking Birds - Under And In Rocks - таба, видео

Регистрация Запомнить меня
Войти через:  Facebook Google Twitter Vk Yandex Mail.ru

Mimicking Birds - Under And In Rocks - таба, видео

Печатать
Просмотров: 52
TUNING: B F# B F# B E


Intro:

E |-------------------------------|---------------------------------| |
B |-------------------------------|---------------------------------| 
F#|------5-----------5-------5----|------5/7---7--/9---9-------9----| |
B |----4-----4-----4-----4-------4|----4-4/5---5--/7---7---7-------0| 
F#|--0-----0-----0-----0-------0--|--0-------------------0-------0--| |
B |0-----------0-----------0------|0-------------0-----------0------| 
                                                                      |  X2
E |-------------------------------|-------------------------------|   
B |-------------------------------|-------------------------------|   |
F#|------0-----------0-------0----|------0-----------0-------0----|   
B |----5-----5-----5-----5-------3|----3-----3-----3-----3-------0|   |
F#|--3-----3-----3-----3-------0--|--1-----1-----1-----1-------0--|   
B |3-----------3-----------3------|1-----------1-----------1------|   |


Verse: "This afternoon..."

E |-------------------------------|---------------------------------|
B |-------------------------------|---------------------------------|
F#|------5-----------5-------5----|------5/7---7--/9---9-------9----|
B |----4-----4-----4-----4-------4|----4-4/5---5--/7---7---7-------0|
F#|--0-----0-----0-----0-------0--|--0-------------------0-------0--|
B |0-----------0-----------0------|0-------------0-----------0------|

E |-------------------------------|-------------------------------|
B |-------------------------------|-------------------------------|
F#|------0-----------0-------0----|------0-----------0-------0----|
B |----5-----5-----4-----4-------4|----5-----5-----5-----5-------0|
F#|--2-----2-----2-----2-------2--|--2-----2-----2-----2-------0--|
B |2-----------2-----------2------|2-----------2-----------2------|

E |-------------------------------|---------------------------------|
B |-------------------------------|---------------------------------|
F#|------5-----------5-------5----|------5/7---7--/9---9-------9----|
B |----4-----4-----4-----4-------4|----4-4/5---5--/7---7---7-------0|
F#|--0-----0-----0-----0-------0--|--0-------------------0-------0--|
B |0-----------0-----------0------|0-------------0-----------0------|

E |-------------------------------|-------------------------------|
B |-------------------------------|-------------------------------|
F#|------0-----------0-------0----|------0-----------0-------0----|
B |----5-----5-----4-----4-------4|----5-----5-----5-----5-------5|
F#|--2-----2-----2-----2-------2--|--2-----2-----2-----2-------2--|
B |2-----------2-----------2------|2-----------2-----------2------|


Chorus(?): "If all we fought for..."

E |-------------------------------|-------------------------------| |
B |-------------------------------|-------------------------------|
F#|------0-----------0-------0----|------0-----------0-------0----| |
B |----5-----5-----5-----5-------5|----0-----0-----0-----0-------0|
F#|--5-----5-----5-----5-------5--|--0-----0-----0-----0-------0--| |
B |5-----------5-----------5------|0-----------0-----------0------|
                                                                    |  x2
E |-------------------------------|-------------------------------|
B |-------------------------------|-------------------------------| |
F#|------0-----------0-------0----|------0-----------0-------0----|
B |----7-----7-----7-----7-------7|----5-----5-----5-----5-------5| |
F#|--7-----7-----7-----7-------7--|--2-----2-----2-----2-------2--|
B |7-----------7-----------7------|2-----------2-----------2------| |

E |-------------------------------|-------------------------------|
B |-------------------------------|-------------------------------|
F#|------0-----------0-------0----|------0-----------0-------0----|
B |----4-----4-----4-----4-------4|----4-----4-----4-----4-------4|
F#|--0-----0-----0-----0-------0--|--0-----0-----0-----0-------0--|
B |0-----------0-----------0------|0-----------0-----------0------|


Verse: "We often are..."

E |-------------------------------|---------------------------------| |
B |-------------------------------|---------------------------------|
F#|------5-----------5-------5----|------5/7---7--/9---9-------9----| |
B |----4-----4-----4-----4-------4|----4-4/5---5--/7---7---7-------0|
F#|--0-----0-----0-----0-------0--|--0-------------------0-------0--| |
B |0-----------0-----------0------|0-------------0-----------0------|
                                                                      |  X2
E |-------------------------------|-------------------------------|
B |-------------------------------|-------------------------------|   |
F#|------0-----------0-------0----|------0-----------0-------0----|
B |----5-----5-----4-----4-------4|----5-----5-----4-----4-------0|   |
F#|--2-----2-----2-----2-------2--|--2-----2-----2-----2-------0--|
B |2-----------2-----------2------|2-----------2-----------2------|   |


Chorus


Ending:

E |-------------------------------|-------------------------------|
B |------9-----------9-------9\---|------4-----------9-------9----|
F#|-------------------------------|-------------------------------|
B |----12----12----12----12-------|----0-----------12----12------x|
F#|--9-----9-----9-----9-------0--|--5-----------9-----9-------9--|
B |9-----------9-----------9------|5-------5/--9-----------9------|
                                                                   
E |-------------------------------|-------------------------------|
B |------7-----------7-------7----|------5-----4b------------0----|
F#|----0-----0--------------------|----------0-------0---0-------0|
B |----------------11----11------0|----0---------------0-------0--|
F#|--7-----------7-----7-------7--|--5----------------------------|
B |7-------7---7-----------7------|5-----------0-----------0------|

This is played twice; the tab below is exactly the same, but just uses different 
shapes and frets for 
the F# chord. Play whichever way you please.

E |-------------------------------|-------------------------------|
B |------9-----------9-------9\---|------4-----------9-------9----|
F#|-------------------------------|-------------------------------|
B |----12----12----12----12-------|----0-----------12----12------x|
F#|--9-----9-----9-----9-------0--|--5-----------9-----9-------9--|
B |9-----------9-----------9------|5-------5/--9-----------9------|
                                                                    
E |------2-----------2-------2----|-------------------------------|
B |-------------------------------|------5-----4b------------0----|
F#|----0-----0-----4-----4--------|----------0-------0---0-------0|
B |--2-----------2-----2-------2-0|----0---------------0-------0--|
F#|0-------0---0-----------0------|--5----------------------------|
B |-------------------------------|5-----------0-----------0------|


E |-------------------------------|
B |------5-----4b-----------------| 
F#|----------0--------------------|
B |----0--------------------------| 
F#|--5----------------------------|
B |5-----------0------------------|
Добавлено: 13.07.2013
Другие материалы по этой песне:
  • Аккорды и текст

Страница создана 13.07.2013
http://primanota.ru/mimicking-birds/under-and-in-rocks-chords.htm
Привет, Гость.
Предлагаем пройти революционный курс по гитаре.
Подарок от PrimaNota.Ru, забирай!