PrimaNota.ru - самый крупный в мире бесплатный архив песенных текстов, аккордов, табулатур и нот


Mimicking Birds - Them - таба, видео

Регистрация Запомнить меня
Войти через:  Facebook Google Twitter Vk Yandex Mail.ru

Mimicking Birds - Them - таба, видео

Печатать
Просмотров: 27
----------------------------------------------------
               THEM - Mimicking Birds
---------------------------------------------------- 

Tuning: Standard

Listen for the accents and the staccatos.  Throughout the verses the first 
and third accents are played staccato as indicated by the dots in the intro.


Intro: 

e|-------------------------|
B|-------------------------|
G|-------------------------|
D|-------------------------|
A|-------------------------|
E|-0-----------------------|

         .                       .
e|-------------------------------------------------|
B|-------7---------7-------------3---------3-------|
G|-------7---------7-----0-------4---------4-----4-|
D|-------------------------------------------------|
A|/7---------7-------7p0---3---------3-------3p0---|
E|-------------------------------------------------|

         .                       .
e|-------------------------------------------------|
B|-------3---------3-------------3---------3---0---|
G|-------4---------4-----4-------4---------4-----0-|
D|-------------------------------------------------|
A|-2---------2-------2p0---2---------2-------2-----|
E|-------------------------------------------------|


Verse:

e|-------------------------------------------------|
B|-------7---------7-------------3---------3-------|
G|-------7---------7-----0-------4---------4-----4-|
D|-------------------------------------------------|
A|-----------7-------7p0---3---------3-------3p0---|
E|-0-----------------------------------------------|

e|-------------------------------------------------|
B|-------3---------3-------------3---------3---0---|
G|-------4---------4-----4-------4---------4-----0-|
D|-------------------------------------------------|
A|-2---------2-------2p0---2---------2-------2-----|
E|-------------------------------------------------|


Sometimes in the last bar of the verse there is a slight variation;
the ghost note indicates that it's optional:

e|------------------------------(5)--------5-------|
B|-------3---------3-------------3---------3---0---|
G|-------4---------4-----4-------4---------4-----0-|
D|-------------------------------------------------|
A|-2---------2-------2p0---2---------2-------2-----|
E|-------------------------------------------------|


Chorus:

e|-------------------------------------------------|
B|-------------------------------------------------|
G|-----------0-------------------7---------7-------|
D|-------4---------4-----------5-----5-------5-----|
A|-----2-------------2\----3-------------------0---|
E|-0-----------------------------------------------|

                   .
e|-----------------0-------------------------------|
B|-----------------------0-----------------0-------|
G|-----------0-----------------------8-------------|
D|-------9-------------9---------9---9-------9\----|
A|-----9-----------------------9-------------------|
E|-7-----------------7-----7-----------------------|


Ending:

This chord shape (maj7) will be very useful for this part.
The number here indicates the finger being used to fret the 
string, not what fret is being fretted. Index finger is 1, 
pinky is 4.

e|-----
B|--4--
G|--2--
D|--3--
A|--1--
E|--1--


e|-------------------------------------------------|
B|-------------------------------------------------|
G|-----------4-----------------------8-------------|
D|-------5---------5-------------9---------9-------|
A|-----5-------------5/--------9-------------9\----|
E|-3-----------------------7-----------------------|

e|-------------------------------------------------|
B|-------------------------------5/---------12\----|
G|-----------4-------------------4/---------11\----|
D|-------5---------5-------------------------------|
A|-----5-------------5---------3----------10-------|
E|-3-----------------------3----------10-----------|

e|-------------------------------------------------|
B|----------10----\9---9---9/10--x---10----10------|
G|-----------9----\8---8---8/9---x---9-----9-------|
D|------10-----------------------------------------|
A|-----8-------------------------------------------|
E|-8-----------------7---7-7/8---x---8-------x-----|

e|-------------------------------------------------|
B|-----------5-------------------------------------|
G|-----------4-----4-----0-----------4-------------|
D|-------5-------------x---------5---------5-----5-|
A|-----3-----------------------5-------------5-----|
E|-3-----------------3-----3-----------------------|

e|-------------------------------------------------------|
B|-------------------------------------------------------|
G|-----------4-----------------------4-------------------|
D|-------5---------5-----5-------5---------5-----5-------|
A|-----5-------------5---------5-------------5-----------|
E|-3-----------------------3-----------------------3-----|


| /  slide up
| \  slide down
| h  hammer-on
| p  pull-off
| .  staccato
|()  ghost note
| x  Mute note/slap
Добавлено: 18.06.2016
Другие материалы по этой песне:
  • Аккорды и текст

Страница создана 18.06.2016
http://primanota.ru/mimicking-birds/them-chords.htm
Привет, Гость.
Предлагаем пройти революционный курс по гитаре.
Подарок от PrimaNota.Ru, забирай!