PrimaNota.ru - самый крупный в мире бесплатный архив песенных текстов, аккордов, табулатур и нот


Mimicking Birds - Cabin Fever - текст песни, таба, видео

Регистрация Запомнить меня
Войти через:  Facebook Google Twitter Vk Yandex Mail.ru

Mimicking Birds - Cabin Fever - текст песни, таба, видео

Печатать
Просмотров: 160
Note: 2 characters equals 1 eighth note.

The only things I am slightly unsure about is the C chord in the intro and the 
outro — I know the notes themselves are right, but the fingering might be 
different from what I'm hearing on the track, but yet, I don't see how else to 
play it.  The C in the intro could be played as follows:

    C
e|------------------------------------|
B|------------------------------------|
G|--------0---------------0-----------|
D|----2p0---0h2-0h2---2p0---0h2-0h2---|
A|--3---------------3-----------------|
E|------------------------------------|

but I prefer the other way.  Everything else is great though, if not playing it 
EXACTLY how the artist does, then you have absolutely nothing to worry about.  


Intro:
    Em                              C
e|----------0---------------0----------------------------------------|
B|--------5---5---5-------5---5---5----------------------------------|
G|------0-------0-------0-------0---------0---------------0----------|
D|----0---------------0-----------------0---------------0------------| x2
A|--7---------------7-----------------7-----5h7-5h7---7-----5h7-5h7--|
E|----------------------------------8---------------8----------------|
 Note: The second time this is played it ends with -5h0- on the A string (instead of -5h7- again).

    D                               C
e|-------------------------------------------------------------------|
B|----------------------------------------0---------------0----------|
G|--------0---------------0-------------0-----0---------0-----10-----|
D|------0---------0-----0-------------10----10----10--10----10-------| x2
A|----12--------12----12--------0---10----------10--10----------0----|
E|--14--------14----14--------14-------------------------------------|

Verses:
    G                               C
e|------------------------------------------0---------------0--------|
B|----------0---------------0-------------5---5---5-------5---5---0--|
G|------------------------------------0---------0-----0---------0----|
D|------0-------0-------0-------0-------0---------------0------------| x2
A|----5---5---5---5---5---5---5---5-3---------------3----------------|
E|--3---------------3------------------------------------------------| 

    D                               C
e|------------------------------------------0---------------0--------|
B|--------7---------------7---------------5---5---5-------5---5---0--|
G|------0---------------0-------------0---------0-----0---------0----|
D|----7-----5h7-5h7---7-----5h7-5h7-----0---------------0------------| x2
A|--5---------------5---------------3---------------3----------------|
E|-------------------------------------------------------------------|

    D                               C
e|-------------------------------------------------------------------|
B|----------------------------------------0---------------0----------|
G|--------0---------------0-------------0-----0---------0-----10-----|
D|------0---------0-----0-------------10----10----10--10----10-------| x2
A|----12--------12----12--------0---10----------10--10----------0----|
E|--14--------14----14--------14-------------------------------------|

    G                               C
e|------------------------------------------0---------------0--------|
B|----------0---------------0-------------5---5---5-------5---5---0--|
G|------------------------------------0---------0-----0---------0----|
D|------0-------0-------0-------0-------0---------------0------------| x2
A|----5---5---5---5---5---5---5---5-3---------------3----------------|
E|--3---------------3------------------------------------------------|

    D                               C
e|------------------------------------------0---------------0--------|
B|--------7---------------7---------------5---5---5-------5---5---0--|
G|------0---------------0-------------0---------0-----0---------0----|
D|----7-----5h7-5h7---7-----5h7-5h7-----0---------------0------------| x2
A|--5---------------5---------------3---------------3----------------|
E|-------------------------------------------------------------------|

    G                               C
e|------------------------------------------0---------------0--------|
B|----------0---------------0-------------5---5---5-------5---5---0--|
G|------------------------------------0---------0-----0---------0----|
D|------0-------0-------0-------0-------0---------------0------------| x2
A|----5---5---5---5---5---5---5---5-3---------------3----------------|
E|--3---------------3------------------------------------------------|

    D                               C
e|-------------------------------------------------------------------|
B|--------7---------------7------------------------------------------|
G|------0---------------0--------------------------------------------|
D|----7-----5h7-5h7---7-----5h7-5h7----------------------------------|
A|--5---------------5---------------3--------------------------------|
E|-------------------------------------------------------------------|

Outro: 
    F                               D
e|------------------------------------------------------------------------0h2--|
B|----------0---------------0---------------0---------------0-----------3------|
G|--------2---2---2-------2---2---2-------2---2---2-------2---2---2---2--------|
D|------3-------3-------3-------3-------3-------3-------3-------0---0----------|
A|----3---------------3---------------3---------------3------------------------|
E|--1---------------1---------------1---------------1--------------------------|
Добавлено: 05.03.2012
Другие материалы по этой песне:
  • Аккорды и текст

Страница создана 05.03.2012
http://primanota.ru/mimicking-birds/cabin-fever-chords.htm
Привет, Гость.
Предлагаем пройти революционный курс по гитаре.
Подарок от PrimaNota.Ru, забирай!