PrimaNota.ru - самый крупный в мире бесплатный архив песенных текстов, аккордов, табулатур и нот


Milt Jackson - Bags And Trane - таба, видео

Регистрация Запомнить меня
Войти через:  Facebook Google Twitter Vk Yandex Mail.ru

Milt Jackson - Bags And Trane - таба, видео

Печатать
Просмотров: 20
Авторы музыки: Milt Jackson

-------------------------------------------------------------------------------
                        Milt Jackson - Bags and Trane
-------------------------------------------------------------------------------
  
  Intro
e|----------------|----------------|----------------|----------------|Parts 1,2
B|----------------|----------------|----------------|----------------|
G|----------------|----------------|----------------|----------------|
D|----------------|--------3---3---|--------5---5---|3---6---5-----5-|
A|3---3---6---6---|5---5-----------|6---6-----------|----------------|
E|----------------|----------------|----------------|----------------|

  Cm7        
e|----------------|----------------|----------------|----------------|--Part 1
B|----------------|------4-6-4-----|----------------|--------------4-|
G|5---------------|------------5-3-|5---------------|----------------|
D|----------------|----------------|----------------|----------------|
A|----------------|----------------|----------------|----------------|
E|----------------|----------------|----------------|----------------|
 |
 |
e|----------------|----------------|----------------|----------------|--Part 2
B|-------4-6------|----------------|-------4-6------|----------------|
G|-----5----------|----------------|-----5----------|----------------|
D|----------------|----------------|----------------|----------------|
A|----------------|----------------|----------------|----------------|
E|----------------|----------------|----------------|----------------|

  Fm7 
e|----------------|----------------|----------------|----------------|--Part 1
B|6---------------|------4-6-4-----|----------------|--------------4-|
G|----------------|----5-------5-3-|5---------------|----------------|
D|----------------|----------------|----------------|----------------|
A|----------------|----------------|----------------|----------------|
E|----------------|----------------|----------------|----------------|
 |
 |
e|----------------|----------------|----------------|----------------|--Part 2
B|----------------|----------------|-------4-6------|----------------|
G|-------3-5------|----------------|-----5----------|----------------|
D|-----5----------|----------------|----------------|----------------|
A|----------------|----------------|----------------|----------------|
E|----------------|----------------|----------------|----------------|

  Ab7              G7#5             Cm7
e|----------------|----------------|----------------|----------------|--Part 1
B|6---------------|------4-6-4-----|----------------|----------------|
G|----------------|----5-------5-3-|5---------------|---------------3|
D|----------------|----------------|----------------|-------------5--|
A|----------------|----------------|----------------|----------------|
E|----------------|----------------|----------------|----------------|
 |
 |
e|----------------|----------------|----------------|----------------|--Part 2d 
B|----------------|----------------|-------4-6------|----------------|
G|-------3-5------|----------------|-----5----------|----------------|
D|-----5----------|----------------|----------------|----------------|
A|----------------|----------------|----------------|----------------|
E|----------------|----------------|----------------|----------------|
Добавлено: 22.12.2015
Другие материалы по этой песне:

Страница создана 01.04.2012
http://primanota.ru/milt-jackson/bags-and-trane-chords.htm
Привет, Гость.
Предлагаем пройти революционный курс по гитаре.
Подарок от PrimaNota.Ru, забирай!