PrimaNota.ru - самый крупный в мире бесплатный архив песенных текстов, аккордов, табулатур и нот


Millions - Nineteen - таба, видео

Регистрация Запомнить меня
Войти через:  Facebook Google Twitter Vk Yandex Mail.ru

Millions - Nineteen - таба, видео

Печатать
Просмотров: 104
Уроки эстрадного вокала в Санкт-Петербурге
MILLIONS - Nineteen 
Tabbed by Matt Roberts
Email - mmaattis@gmail.com


h - hammer on
p - pull off
b - bend string up
r - release bend
/ - slide up
\ - slide down
v - vibrato (sometimes written as ~)
t - right hand tap
x - play 'note' with heavy damping


INTRO

(bass)

rhythm
e|--------------------------------------------------------------------------|
B|--------------------------------------------------------------------------|
G|-----13------------------------------10-----------------------------------|
D|-----14------------------------------11-----------------------------------|
A|-----14------------------------------11-----------------------------------|
E|-----12------------------------------9------------------------------------|

e|--------------------------------------------------------------------------|
B|--------------------------------------------------------------------------|
G|-----13------------------------------10-------10-------10-------10--------|
D|-----14------------------------------11-------11-------11-------11--------|
A|-----14------------------------------11-------11-------11-------11--------|
E|-----12------------------------------9--------9--------9--------9---------| x2


lead
e|---------------------------------------------------------------------------|
B|---------------------------------------------------------------------------|
G|---------------------------------------------------9h11p9-----9------------|
D|-----------------------------9-----------------------------11--------------|
A|-------------8-------11--------------9-------11----------------------------|
E|----\9---------------------------------------------------------------------|


VERSE
rhythm
e|---------------------------------------------------------------------------|
B|-----9---------9-------------------------6---------6-----------------------|
G|-----9---------9-------------------------6---------6-----------------------|
D|-----9---------9-------------------------6---------6-----------------------|
A|-----7---------7-------------------------4---------4-----------------------|
E|---------------------------------------------------------------------------| (repeat)

lead

(rest bar)

e|---------------------------------------------------------------------------|
B|---------------------------------------------------------------------------|
G|---------------------------------------------------------------------------|
D|----------------------------------------------9------9---------------------|
A|-----------------------------------------9h11---9h11-----------------------|
E|---------------------------------------------------------------------------|

(rest bar) 

e|---------------------------------------------------------------------------|
B|---------------------------------------------------------------------------|
G|---------------------------------------------------9h11p9-----9------------|
D|-----------------------------9-----------------------------11--------------|
A|-------------8-------11--------------9-------11----------------------------|
E|----\9---------------------------------------------------------------------|

e|---------------------------------------------------------------------------|
B|---------------------------------------------------------------------------|
G|----12b-----12b-----12b-----12b-----12b------9--------9-------9------------| (12b = 12↑13↓12)
D|-------------------------------------------------11------9h11--------------|
A|---------------------------------------------------------------------------|
E|---------------------------------------------------------------------------|

e|---------------------------------------------------------------------------|
B|---------------------------------------------------------------------------|
G|----12b-----12b-----12b-----12b-----12b------9--------9-------9------------|
D|-------------------------------------------------11--------11--------------|
A|---------------------------------------------------------------------------|
E|---------------------------------------------------------------------------|

e|---------------------------------------------------------------------------|
B|---------------------------------------------------------------------------|
G|--------------------------------------------16---14---13------9------------|
D|-----------------------------------------------------------11--------------|
A|----12---14----12---14----12---14----12------------------------------------|
E|---------------------------------------------------------------------------|

e|----14b--12-------------------------(Couldn't quite figure this part out)--| 
B|------------14--12h14--12--10----------------------------------------------|
G|-------------------------------9--11--11--9--7-----7--7--------------------|
D|-------------------------------------------------9-------9--7--------------|
A|--------------------------------------------------------------9--7---------|
E|-------------------------------------------------------------------10--7---|


PRE CHORUS

e|---------------------------------------------------------------------------|
B|---------------------------------------------------------------------------|
G|---8-----9-----10----11-----12-----13----------11---------10---------------|
D|---9-----10----11----12-----13-----14----------12---------11---------------|
A|---9-----10----11----12-----13-----14----------12---------11---------------|
E|---7-----8-----9-----10-----11-----12----------10---------9----------------|

e|---------------------------------------------------------------------------|
B|---------------------------------------------------------------------------|
G|---11---------13-------------------------------11----------10--------------|
D|---12---------14-------------------------------12----------11--------------|
A|---12---------14-------------------------------12----------11--------------|
E|---10---------12-------------------------------10----------9---------------| 

e|---------------------------------------------------------------------------|
B|---------------------------------------------------------------------------|
G|---11---------13-------------------------------11----------10--------------|
D|---12---------14-------------------------------12----------11--------------|
A|---12---------14-------------------------------12----------11--------------|
E|---10---------12-------------------------------10----------9---------------| 

e|---------------------------------------------------------------------------| 
B|---------------------------------------------------------------------------|
G|---11---------8----------------------8-----9-----10----11-----12-----13----|
D|---12---------9----------------------9-----10----11----12-----13-----14----|
A|---12---------9----------------------9-----10----11----12-----13-----14----|
E|---10---------7----------------------7-----8-----9-----10-----11-----12----|



CHORUS -(listen to song for strumming patterns) 

e|---------------------------------------------------------------------------|
B|---------------------------------------------------------------------------|
G|---13----------------------------------------------------------------------|
D|---14-------(strum)--------------------------------------------------------|
A|---14----------------------------------------------------------------------|
E|---12----------------------------------------------------------------------|

e|---------------------------------------------------------------------------|
B|---------------------------------------------------------------------------|
G|---13----12----11----10----------------------------------------------------|
D|---14----13----12----11---------(strum)------------------------------------|
A|---14----13----12----11----------------------------------------------------|
E|---12----11----10----9-----------------------------------------------------|

e|---------------------------------------------------------------------------|
B|---------------------------------------------------------------------------|
G|---10----9-----8-----6-----------------------------------------------------|
D|---11----10----9-----7---------(strum)-------------------------------------|
A|---11----10----9-----7-----------------------------------------------------|
E|---9-----8-----7-----5-----------------------------------------------------|

e|---------------------------------------------------------------------------|
B|---------------------------------------------------------------------------|
G|--6-----9-----7-----8------------------------------------------------------|
D|--7-----7-----8-----9----------(strum)-------------------------------------|
A|--7-----7-----8-----9------------------------------------------------------|
E|--5-----5-----6-----7------------------------------------------------------|  (repeat chorus)



BRIDGE

rhythm
e|---------------------------------------------------------------------------|
B|-----9---------------9----------------6-----------------6------------------|
G|-----9---------------9----------------6-----------------6------------------|
D|-----9---------------9----------------6-----------------6------------------|
A|-----7---------------7----------------4-----------------4------------------|
E|---------------------------------------------------------------------------| (repeat)

lead

e|---------------------------------------------------------------------------|
B|---------------------------------------------------------------------------|
G|----12b----12b----12b----12b----12b----12b----12b\10-----------------------|
D|---------------------------------------------------------------------------|
A|---------------------------------------------------------------------------|
E|---------------------------------------------------------------------------| 

OURTRO

rhythm
e|---------------------------------------------------------------------------|
B|-----9-------9-------9-------9-------6-------6-------6-------6-------------|
G|-----9-------9-------9-------9-------6-------6-------6-------6-------------|
D|-----9-------9-------9-------9-------6-------6-------6-------6-------------|
A|-----7-------7-------7-------7-------4-------4-------4-------4-------------|
E|---------------------------------------------------------------------------| (repeat)


lead(same as verse)
e|---------------------------------------------------------------------------|
B|---------------------------------------------------------------------------|
G|----12b-----12b-----12b-----12b-----12b------9--------9-------9------------| (12b = 12↑13↓12)
D|-------------------------------------------------11------9h11--------------|
A|---------------------------------------------------------------------------|
E|---------------------------------------------------------------------------|

e|---------------------------------------------------------------------------|
B|---------------------------------------------------------------------------|
G|----12b-----12b-----12b-----12b-----12b------9--------9-------9------------|
D|-------------------------------------------------11--------11--------------|
A|---------------------------------------------------------------------------|
E|---------------------------------------------------------------------------|

e|---------------------------------------------------------------------------|
B|---------------------------------------------------------------------------|
G|--------------------------------------------16---14---13------9------------|
D|-----------------------------------------------------------11--------------|
A|----12---14----12---14----12---14----12------------------------------------|
E|---------------------------------------------------------------------------|

e|----14b--12-------------------------(Couldn't quite figure this part out)--| 
B|------------14--12h14--12--10----------------------------------------------|
G|-------------------------------9--11--11--9--7-----7--7--------------------|
D|-------------------------------------------------9-------9--7--------------|
A|--------------------------------------------------------------9--7---------|
E|-------------------------------------------------------------------10--7---|


end
Добавлено: 10.08.2015
Другие материалы по этой песне:
  • Аккорды и текст

Страница создана 10.08.2015
http://primanota.ru/millions/nineteen-chords.htm
Привет, Гость.
Предлагаем пройти революционный курс по гитаре.
Подарок от PrimaNota.Ru, забирай!