PrimaNota.ru - самый крупный в мире бесплатный архив песенных текстов, аккордов, табулатур и нот


Million Dollar Band - Yea Alabama - таба, видео

Регистрация Запомнить меня
Войти через:  Facebook Google Twitter Vk Yandex Mail.ru

Million Dollar Band - Yea Alabama - таба, видео

Печатать
Просмотров: 10
-------------------------------------------------------------------------------
                    Yea Alabama - Million Dollar Band
-------------------------------------------------------------------------------
Tabbed by: Jeremy W. Colley
E-mail: JeremyWColley@Gmail.com

This is a complete tab for the fight song "Yea Alabama". Roll Tide!

Tuning: Standard

e|-----------------------------------------------------------------------|
B|-----------------------------------------------------------------------|
G|--5--------------------------------------------------------------------|
D|-----6-----------6-----6--5--5--------5--5-----------------------------|
A|--------6--8--6-----8-----------8--6--------8--6--6--3--6--------------|
E|-----------------------------------------------------------------------|

e|-----------------------------------------------------------------------|
B|-----------------------------------------------------------------------|
G|-----------------------------------------------------------------------|
D|--4--3--------------------------------------------5--5--3--------5-----|
A|--------3--6--8--4--6--8--1--3--5--1--3--5--3--1-----------6--8-----6--|
E|-----------------------------------------------------------------------|

e|-----------------------------------------------------------------------|
B|-----------------------------------------------------------------------|
G|--5-----------------------------------------------3--5--5--5--4--3-----|
D|-----6-----------6-----6-----5--5--------5--5--6-----------------------|
A|--------6--8--6-----8-----8--------8--6--------------------------------|
E|-----------------------------------------------------------------------|

e|-----------------------------------------------------------------------|
B|-----------------------------------------------------------------------|
G|--------------------------------------------3--5-----------------------|
D|-----7-----5-----6--6--5-----------5--6--6-----------------------------|
A|--8-----8-----8-----------5--8--8--------------------------------------|
E|-----------------------------------------------------------------------|

e|-----------------------------------------------------------------------|
B|-----------------------------------------------------------------------|
G|--3--5--------------------------------------------3--------------------|
D|--------6-----------6-----6-----5--5--------5--6-----6-----------------|
A|-----------6--8--6-----8-----8--------8--6-----------------------------|
E|-----------------------------------------------------------------------|
Добавлено: 22.05.2016
Другие материалы по этой песне:
  • Аккорды и текст

Страница создана 22.05.2016
http://primanota.ru/million-dollar-band/yea-alabama-chords.htm
Привет, Гость.
Предлагаем пройти революционный курс по гитаре.
Подарок от PrimaNota.Ru, забирай!