PrimaNota.ru - самый крупный в мире бесплатный архив песенных текстов, аккордов, табулатур и нот


Miller Stain Limit - Cellophane - аккорды и текст, видео

Регистрация Запомнить меня
Войти через:  Facebook Google Twitter Vk Yandex Mail.ru

Miller Stain Limit - Cellophane - аккорды и текст, видео

Печатать
Просмотров: 60
Уроки эстрадного вокала в Санкт-Петербурге
Авторы текста: Jason C. Miller
Cellophane
Miller Stain Limit
	Song   : Cellophane
	Artist : The Miller Stain Limit
	Album  : Radiate
	Label  : A&M Records
	Tabbed : Ryan Lloyd   Rdlloyd@rogers.com
	
	
   Tune Down half step:			

   Play with slight variations throughout
   Intro and Verse 1: Play 10 times

	|---------------------------------------------------------|
	|---------------------------------------------------------|
	|----2------------2--0------------------------------------|
	|---------2----2-------------2------0-------0-------------|
	|-------------------------3------3-------2-------2---0----|
	|---------------------------------------------------------|

	Cellophane,   Situation....

        


   11th time go into:

        G                            E           C
	         The Face Behind the Face

   Chorus:   
	
	    G       C              G     
	And I don't...
            C            G
            C            G
            F     G


   Back into Verse:


	Cellophane, wrap me...


        G                            E           C
	         The Face Behind the Face

   Chorus:

            G       C              G     
	And I don't...
            A                C        
	    D            A         F     G      
	

	
	x2
	|----------------------------|
	|----------------------------|
	|-----9-----9--9-------2-----|
	|-----9-----9--9-------2-----|
	|-----7-----7--7-------0-----|
	|----------------------------|
	 
		  C
	You never know...
	G               F
	Until the point of impact

			            after second time
	x2			    ------------------------|
	|---------------------------------------------------|
	|---------------------------------------------------|
	|-----9----12----2-----------9----------------------|
	|-----9----12----2-----------9-------5-5-5-5-x-3----|
	|-----7----10----0-----------7-------5-5-5-5-x-3----|
	|------------------------------------3-3-3-3-x-1----|



	Repeat 1st verse with slight variations then end with


	A            C      G
	A            C	    G
	A	     C	    G   Repeat and end on A
     
Добавлено: 15.10.2013
Вам также может быть интересно:
Другие материалы по этой песне:
  • Аккорды и текст

Страница создана 15.10.2013
http://primanota.ru/miller-stain-limit/cellophane-chords.htm
Привет, Гость.
Предлагаем пройти революционный курс по гитаре.
Подарок от PrimaNota.Ru, забирай!