PrimaNota.ru - самый крупный в мире бесплатный архив песенных текстов, аккордов, табулатур и нот


Millenium - Embryo - аккорды и текст, видео

Регистрация Запомнить меня
Войти через:  Facebook Google Twitter Vk Yandex Mail.ru

Millenium - Embryo - аккорды и текст, видео

Печатать
Просмотров: 46
Embryo
Millenium
---------------------------------------------------------------------------------------------------
                                          Artist - Millenium
                                         ********************
                                            Song - Embryo
                                           ***************
                                            Album - Exist  
                                           ***************
                                        Tabbed By - Ayreon77
                                       **********************
---------------------------------------------------------------------------------------------------
Tuning = Standard


INTRO
******
00:15
Clear Picking
  Bm
e|------------------------|
B|-------2-----5----2-----|
G|-----4---2----4-----2---|
D|---4-------4----4-----4-|Continually play this
A|-2----------------------|
E|------------------------|

00:27
Acoustic Strumming - Bm                            G A

00:27
Volume Electric Guitar.
e|----------|-----b-r-------------|---------------------------|-14-----------|--p-------p------p--------------|
B|---7------|-7---7---------------|------p-----p-----p-----12-|---15--14-----|-8-7-8---7-5-7--5-3-5----3------|
G|-4----7-6-|---------------------|-7---9-7--11-9--12-11------|-----------14-|---------------------------4--2-|
D|----------|---------7---4-------|---------------------------|--------------|--------------------------------|
A|----------|----------------5--4-|---------------------------|--------------|--------------------------------|
E|----------|---------------------|---------------------------|--------------|--------------------------------|


-------------------------
01:30
SOLO 1
*******
           Bm                          A                                Bm                            A
e|---------------------------|-----------------------s------s-|---------------------------------|-----------|
B|----------rbp------------s-|------------------2-3-3\5-~~~~\-|----------rbp-------------b-r----|--h--------|
G|--s--2-4-4---2-4-~~~~-2-4\-|--s--2-4-2-~~~~-2---------------|--s--2-4-4---2-4-~~~~-2-4-4--2-4-|-2-4-2-~~~-|
D|-2\4-----------------------|-2\4----------------------------|-2\4-----------------------------|-----------|
A|---------------------------|--------------------------------|---------------------------------|-----------|
E|---------------------------|--------------------------------|---------------------------------|-----------|
      
                            G                       A                 G
e|-----p----p-------|-------b----rp-------s-|--------------------|--b-------p----------12--b--rp---------|
B|-5-5--3-3--2-2~~~-|-7-8-7-8------7-8-~~~\-|-------10-----------|-12-12--12-10-12--10----12----10-12-~~-|
G|------------------|-----------------------|-7-9-7----9-9-~~~~~-|---------------------------------------|
D|------------------|-----------------------|-7-9-7--------------|---------------------------------------|
A|------------------|-----------------------|--------------------|---------------------------------------|
E|------------------|-----------------------|--------------------|---------------------------------------|
      A                                Bm
    b      br                       b
e|-12-12-|-9--5---------------|----12-|
B|-------|------5---p---------|-10----|
G|-------|---------6-4------s-|-------|
D|-------|-------------7-~~~\-|-------|
A|-------|--------------------|-------|
E|-------|--------------------|-------|


-------------------------
  Bm            A          D         G     F#m       G     A     Bm   Em   G  F#m    Bm
02:37
Clean Picking
e|---7---7---7---5---5---7---7---7---7---7---7---7---7---5---5----10----10----10----10---3---3---2---2-|
B|-7---7---7---5---5---7---7---7---7---7---7---7---7---5---5---10----10----10----10----3---3---2---2---|
G|-----------------------------------------------------------------------------------------------------|
D|-----------------------------------------------------------------------------------------------------|
A|-----------------------------------------------------------------------------------------------------|
E|-----------------------------------------------------------------------------------------------------|


e|---3---3---5---5---7---5---3---3---2---2-|
B|-3---3---5---5---7---5---3---3---2---2---|
G|-----------------------------------------|Repeat this picking 
D|-----------------------------------------|  Again with VERSE 1.
A|-----------------------------------------|
E|-----------------------------------------|

02:45
Bassy Guitar Notes
e|-----------------------------------------------------------------------------------------------|
B|-----------------------------------------------------------------------------------------------|
G|---------------------------------------------------------------------------------------VERSE-1-|
D|-----------p----------------------------------------s-----s------------------------------------|
A|---2------2-0-------5--------5----4----5----7----9--\--7--\--5----4-------2-----0-2------2-----|
E|-2----------------2-----------------------------------------------------2-----2--------2-------|


----------------------------------------------------
VERSE 1
********
Bm
Remember this warning my friends
     A                    Bm
That life is a rapid wild river

Walking through the pain
     A                         D
From cradle till the very last grave

----------------------------------------------------
CHORUS
*******
G                          F#m
Try till you find your own freedom
G                           A
See everything through your eyes
       D         A         G
Let me go my way to my own shadow
      F#m                  Bm
I can see that you're satisfied


----------------------------------------------------

HEAVY GUITAR - With VERSE 2
  Bm                  A       Bm                  Bm                  A       D
e|---------|---------|-------|---------|---------|---------|---------|-------|---------|--------------|
B|---------|---------|-------|---------|---------|---------|---------|-------|---------|--------------|
G|---------|---------|-------|---------|---------|---------|---------|-------|---------|--------------|
D|---------|---------|-------|---------|---------|---------|---------|-------|-7-5-7-7-|-7-5-7-7--7-7-|
A|-9-7-9-9-|-9-7-9-9-|-7-5-7-|-9-7-9-9-|-9-7-9-9-|-9-7-9-9-|-9-7-9-9-|-7-5-7-|-5-3-5-5-|-5-3-5-5--5-5-|
E|-7-5-7-7-|-7-5-7-7-|-5-3-5-|-7-5-7-7-|-7-5-7-7-|-7-5-7-7-|-7-5-7-7-|-5-3-5-|---------|--------------|

VERSE 2
********

What you're gonna get
   A                               Bm
Is less that you think that you'll have

All your dreams and doubts
     A                         D
Will arise when you're finally here

----------------------------------------------------

HEAVY CHORDS - With Chorus
   G  F#m  G   A  Bm   A   G  F#m Bm
e|-3-|-2-|-3-|-5-|-7-|-5-|-3-|-2-|---------|---------|---------|---------|
B|-3-|-2-|-3-|-5-|-7-|-5-|-3-|-2-|---------|---------|---------|---------|
G|-4-|-2-|-4-|-6-|-7-|-6-|-4-|-2-|---------|---------|---------|---------|
D|-5-|-4-|-5-|-7-|-9-|-7-|-5-|-4-|---------|---------|---------|---------|
A|-5-|-4-|-5-|-7-|-9-|-7-|-5-|-4-|-9-7-9-9-|-9-7-9-9-|-9-7-9-9-|-9-7-9-9-|
E|-3-|-2-|-3-|-5-|-7-|-5-|-3-|-2-|-7-5-7-7-|-7-5-7-7-|-7-5-7-7-|-7-5-7-7-|

CHORUS
*******
G                       F#m
There is no hell and no heaven
G                    A
All that you do is a game
     Bm                 A        G
Stop saying that you'll never be living
         F#m                    Bm
With the right to behave as you please

As you please

----------------------------------------------------
04:40
SOLO 1                                          hold                   Not Sure
*******                                         bend                  About This ?
  Whammy Pre Bend and Dive Up then dive down   b  |  |  rb     b r   ---------------
e|---------------------------s--5-7-9-10-|-12-12-12-12--10-12------|----------------------14--------------|
B|--------------------s--3--5\7----------|-------------------------|-------------------15------15-12----s-|
G|-------------s--2--4\6-----------------|-------------------------|---------------------------------14-\-|
D|---------0--2\4------------------------|-------------------------|----------h--h------------------------|
A|-----2-4-------------------------------|-------------------------|--h--h---0-12-14----------------------|
E|---------------------------------------|-------------------------|-0-12-14------------------------------|
                                               hold
                                               bend
04:55                                         b  | rb           b    b   b                       
e|--s----5---|-----b-b--rb--|--s-------s---|-10-10-10-9-7-9-10-10-|-12--10---b---b-------s---|
B|-5\7-7---5-|---5-5-5--5-3-|-5\7--8--8\10-|----------------------|---------13--11--10-10\12-|
G|-----------|-7------------|--------------|----------------------|--------------------------|
D|-----------|--------------|--------------|----------------------|--------------------------|
A|-----------|--------------|--------------|----------------------|--------------------------|
E|-----------|--------------|--------------|----------------------|--------------------------|

     p
e|-10-9------s-----b-r-|
B|------10-10\12--10---|
G|---------------------|
D|---------------------|
A|---------------------|
E|---------------------|


----------------------------------------------------
05:23 - 05:55
SYNTH SOLO - Bm A Bm A G F#m G A 
***********
----------------------------------------------------
VERSE 3
********
Bm
I'll never see you falling down
         A
It's the promise you can trust

HARMONICS = *
**********
   *  
e|-7-*--------|
B|---7---*----|similar
G|-------7-*--|thought the 
D|---------7--|verse
A|------------|
E|------------|
Bm
You'll never hear a word of doubt
            a
Cos there's always a way out
G
  Live your days just as you please
    -----------------------------------|
        F#m                            | 
They'll never be the same              |
G                                      |
  Forgotten nights will never pass     |
         A                             |
Cos it's always in your head           |
                                       |
VOLUME IN VERSE 3----------------------|
06:11                            s
e|-7---9---7---5-----------10-9-7\-|
B|---------------7-5---------------|
G|-------------------7-9-----------|
D|---------------------------------|
A|---------------------------------|
E|---------------------------------|


----------------------------------------------------

 Continue with VOL with BRIDGE below
e|-7-12-9-10-7-5-2-3--2------|
B|-7--------------------3--2-|
G|---------------------------|
D|---------------------------|
A|---------------------------|
E|---------------------------|
BRIDGE
*******
           Bm                  A
There is a distant shore empty fires in your eyes
           Bm                      A
There is a fear that grows burning forest in your soul


----------------------------------------------------
 
 Continue with VOL with CHORUS below
e|-----10----7-5--12-10-7-9-|---10---7-5-----------------|
B|-5-------7----------------|------------7-7-5-3-5-2-3-0-|
G|--------------------------|-9----7---------------------|
D|--------------------------|----------------------------|
A|--------------------------|----------------------------|
E|--------------------------|----------------------------|

CHORUS
*******
G
And I noticed that you believe
F#m
In the lies you cannot see
G
It's illusion in the dark
A                                      Bm
That you'll ever have the power to fly


----------------------------------------------------
06:59 - 10:12
SYNTH FLUTE SOLO - Continues with Harmonics
*****************
08:41
GUITAR VOLUME SOLO
*******************   s 
e|-17-15-14--14----12-\-|-------------------|---------------------------|----------s-|
B|--------------15------|-15-------15-------|-15-------15---------------|----14-15-\-|
G|----------------------|----14-16----14----|----14-16----14---------14-|------------|
D|----------------------|----------------14-|----------------14---12----|-14---------|
A|----------------------|-------------------|---------------------------|------------|
E|----------------------|-------------------|---------------------------|------------|

09:02
e|-14------------------------------------|---------------------this part is ----------------|
B|----15-14----------------------------s-|-----------------12-------kinda unclear-----------|
G|----------14-----------------------14\-|-14----------14---------------so just add lib-----|
D|-------------14----------12-11---------|----14-12---------------------------for this part-|
A|----------------16-12-16-------14------|----------14--------------------------its similar-|
E|---------------------------------------|-----------------------------------------to above-|

This is an embryo life X2

----------------------------------------------------
10:12
PIANO
******
----------------------------------------------------
VERSE 5 - Kinda rhythm hes doing below, listen close to get it, below is an example not note for note
********  follow the chords with the words.
   Bm                           A              Bm                           A              D
e|----------------------------|--------------|----------------------------|--------------|--------------|
B|----------------------------|--------------|----------------------------|--------------|--------------|
G|----------------------------|--------------|----------------------------|--------------|--------------|
D|----------------------------|--------------|----------------------------|--------------|-7-7--7---7-7-|
A|-9-9--9---9-9---9--9-9--9-9-|-7-7--7---7-7-|-9-9--9---9-9---9--9-9--9-9-|-7-7--7---7-7-|-5-5--5---5-5-|
E|-7-7--7---7-7---7--7-7--7-7-|-5-5--5---5-5-|-7-7--7---7-7---7--7-7--7-7-|-5-5--5---5-5-|--------------|

Bm
Remember my this feeling my friend
     A                    Bm
That life is a rapid wild river

Walking through the pain
     A                         D
From cradle till the very last grave


----------------------------------------------------
CHORUS 
*******
Play this with chorus below
   G                 F#m               G                 A                 Bm  A   G
e|-----------------|-----------------|-----------------|-----------------|---|---|-----------------|
B|-----------------|-----------------|-----------------|-----------------|---|---|-----------------|
G|-----------------|-----------------|-----------------|-----------------|---|---|-----------------|
D|-----------------|-----------------|-----------------|-----------------|---|---|-----------------|
A|-5-5--5---5-5--5-|-4-4--4---4-4--4-|-5-5--5---5-5--5-|-7-7--7---7-7--7-|-9-|-7-|-5-5--5---5-5--5-|
E|-3-3--3---3-3--3-|-2-2--2---2-2--2-|-3-3--3---3-3--3-|-5-5--5---5-5--5-|-7-|-5-|-3-3--3---3-3--3-|


e|-----------------|----------------------------|
B|-----------------|----------------------------|
G|-----------------|----------------------------|
D|-----------------|----------------------------|
A|-4-4--4---4-4--4-|-9-9--9---9-9---9--9-9--9-9-|
E|-2-2--2---2-2--2-|-7-7--7---7-7---7--7-7--7-7-|

G                           F#m
Now that you're in your own prison
G                           A
Now that you're in your own cage
Bm        A               G
Shoot the remains of your laughter
F#m                       Bm
Shoot the remains of your faith

Of your faith


----------------------------------------------------
11:09
SOLO 2        9th note is the reverse bend
*******       UB 
e|------------rbp--------|------------|------------------|-----10----|---9------|-b--rb----|
B|-b----------7----------|-----brp----|-TRILL...........-|-s---------|----------|-8--8-7---|
G|-9-~~~~~~~--9--7-9-~~~-|-7-9-9--7---|--h-p-h-p---------|-\11----11-|-9---9--7-|--------7-|
D|-----------------------|----------9-|-7-9-7-9----------|-----------|----------|----------|
A|-----------------------|------------|------------------|-----------|----------|----------|
E|-----------------------|------------|------------------|-----------|----------|----------|

                           s   b       b       b      b      b         b 
e|----------------s---10-10\-|-b-------b---|---b------b------b---------b----------|
B|--------7--8-7-8\10--------|-9-9-----9-9-|---9------9------9---------9-9--7-9-7-|
G|-s--7-9--------------------|-9-9-7---9-9-|-7-9-9-7--9-9-7--9-9-7---7-9-9--7-9-7-|
D|-\9------------------------|-------9-----|-----------------------9--------------|
A|---------------------------|-------------|--------------------------------------|
E|---------------------------|-------------|--------------------------------------|

11:35
e|-----7------9-|-----7-|-----7-|-----7-|-----7-|-----7-|-----7-|--b-7--b-7--b-7--b-|-7--------|
B|-b-7-7--b-7-9-|-b-7-7-|-b-7-7-|-b-7-7-|-b-7-7-|-b-7-7-|-b-7-7-|-10---10---10---10-|---10-7-b-|
G|-9------9-----|-9-----|-9-----|-9-----|-9-----|-9-----|-9-----|-------------------|--------9-|
D|--------------|-------|-------|-------|-------|-------|-------|-------------------|----------|
A|--------------|-------|-------|-------|-------|-------|-------|-------------------|----------|
E|--------------|-------|-------|-------|-------|-------|-------|-------------------|----------|


e|-------------------------|
B|-----brp-----p-----------|
G|-7-9-9--7---9-7--h-------|
D|----------9-----7-9-~~~~-|
A|-------------------------|
E|-------------------------|


Bm            A
Empty feeling grow
    F#m               G
The questions of your soul
Bm             A
Empty feelings show
    F#m                   A
The questions will always glow
       Bm
Always flow


----------------------------------------------------
12:08
GUITAR VOL SOLO - Bm F#m
****************
e|--------14-------------------------|
B|-12-------------12-----------------|
G|-----------------------11-------s--|
D|------------------------------9-\--|
A|-----------------------------------|
E|-----------------------------------|


e|--------------------------|-----------------------|
B|--------------------------|-----------------------|
G|--------------------------|-----------------------|
D|--------------------------|-----------------------|
A|-9--9-9--12--9--7-9--12-9-|-9--9-9--12--9--7-9--4-|
E|-7--7-7--10--7--5-7--10-7-|-7--7-7--10--7--5-7--2-|X6



ENJOY..............
Добавлено: 29.11.2015
Другие материалы по этой песне:
  • Аккорды и текст

Страница создана 29.11.2015
http://primanota.ru/millenium/embryo-chords.htm
Привет, Гость.
Предлагаем пройти революционный курс по гитаре.
Подарок от PrimaNota.Ru, забирай!