PrimaNota.ru - самый крупный в мире бесплатный архив песенных текстов, аккордов, табулатур и нот


Millenium - Blood On The Rain - аккорды и текст, видео

Регистрация Запомнить меня
Войти через:  Facebook Google Twitter Vk Yandex Mail.ru

Millenium - Blood On The Rain - аккорды и текст, видео

Печатать
Просмотров: 40
Blood On The Rain
Millenium
-----------------------------------------------------------------------------
                                          Artist - Millenium
                                         ********************
                                       Song - Blood On The Rain 
                                      **************************
                                Album - In Search Of The Perfect Melody
                               *****************************************
                                         Tabbed By - Ayreon77
                                        **********************
-----------------------------------------------------------------------------
Tuning = Standard


INTRO
******
G

------------------
VERSE 1
********
     D
If I asked you once again
Em
  What was it for
G                              D
 How will you explain all this pain

If I Asked you for the clue
Em
  What am I supposed to do
G                                           D
 Whats the sense of fight when your falling down


------------------
CHORUS
*******
C
  I ask you again
       G
Was it really meant for him this way
F                         C
  Did he deserve all that suffering and fear
Am
 Broken heart the feelings over
Em
 Closing arms its getting colder
Dm                                C
And the only sign is blood on the rain

D 

------------------
Play this with VERSE 2 below
  D                                 Em
e|-------2---------------2---------|-------0---------------0---------|
B|-----3---3-----------3---3-------|-----0---0-----------0---0-------|
G|---2-------2---2---2-------2---2-|---0-------0---0---0-------0---0-|
D|-0-----------0---0-----------0---|-2-----------2---2-----------2---|
A|---------------------------------|---------------------------------|
E|---------------------------------|---------------------------------|

  G                                         D
e|-----------3-----------------3-----------|-------2---------------2---------|
B|-------------0-----------------0---------|-----3---3-----------3---3-------|
G|---------0-----0---0-------0-----0---0---|---2-------2---2---2-------2---2-|Repeat all
D|-------0---------0---0---0---------0---0-|-0-----------0---0-----------0---|
A|-----------------------------------------|---------------------------------|
E|-0-2-3-----------------3-----------------|---------------------------------|

VERSE 2
********
       D
If you could just turn back the time
Em
  He could have been alive
G                                     D
 People dance and sing bring all that joy

If he could just disappear
Em
  Erase the day away
G                             C
 There would be no tears, and dis-pear


------------------
Play this with CHORUS below
  C                                 G
e|-------0---------------0---------|-------3-----------------3-----------|
B|---------1---------------1-------|---------0-----------------0---------|
G|-----0-----0---0-----0-----0---0-|-----0-----0---0-------0-----0---0---|
D|---2---------2-----2---------2---|---0---------0---0---0---------0---0-|
A|-3---------------3---------------|-------------------------------------|
E|---------------------------------|-3-----------------3-----------------|

  F                                 C
e|-------1---------------1---------|-------0---------------0---------|
B|-----1---1-----------1---1-------|---------1---------------1-------|
G|---2-------2---2---2-------2---2-|-----0-----0---0-----0-----0-----|
D|-3-----------3---3-----------3---|---2---------2-----2-------------|
A|---------------------------------|-3---------------3-----------3-2-|
E|---------------------------------|---------------------------------|

  Am                                Em
e|-------0---------------0---------|-------0---------------0---------|
B|---------1---------------1-------|-----0---0-----------0---0-------|
G|-----2-----2---2-----2-----2-----|---0-------0---0---0-------0---0-|
D|---2---------------2-----------2-|-2-----------2---2-----------2---|
A|-0-----------0---0-----------0---|---------------------------------|
E|---------------------------------|---------------------------------|

  Dm                                C
e|-------1---------------1---------|-------0---------------0---------|
B|-----3---3-----------3---3-------|---------1---------------1-------|
G|---2-------2---2---2-------2---2-|-----0-----0---0-----0-----0---0-|
D|-0-----------0---0-----------0---|---2---------2-----2---------2---|
A|---------------------------------|-3---------------3---------------|
E|---------------------------------|---------------------------------|

CHORUS
*******
C
  I ask you again
        G
Will he ever get his peace again
F                                  C
  I hope he'll be so quiet when he look into your eyes
Am
Now he's tired and life is never
Em
Could have been so happy together
Dm                                C
But the only sign is blood on the rain



------------------
BRIDGE
*******
F
Oh my God his heart is on fire
Em
Cause the devil invented desire
D
You should always think twice
           C
Before you cross this border line
F
There's no sense of thinking he don,t vow
Em
Dreams were wrong and devil was stronger
Dm                                 C
Now the only thing is blood on the rain
             D      G
Blood on the rain
             D
Blood on the rain..............


------------------
03:12
SOLO
*****
PH = Pinch Harmonics
   PH                                                           b   rb
e|-----------------|-----b--------------|-------------|------8-10--10--8----b-10--b-rp--|--b-10--b-|
B|--brp------------|----13--10----------|--b----p-----|----8-------------8-10----10---8-|-10----10-|
G|-12--10-12-10----|-----------12-10----|-12--12-10-9-|-s-------------------------------|----------|
D|--------------12-|-12--------------12-|-------------|-\9------------------------------|----------|
A|-----------------|--------------------|-------------|---------------------------------|----------|
E|-----------------|--------------------|-------------|---------------------------------|----------|

                                                           s
e|----10---------|------p----|------h-------------|-------5\7-/5---5-7-8-5--------------------------|
B|-10------------|-----8-7---|---7-7-8--7----h----|---8----------8---------6--------------s---10-13-|
G|-------7--s--7-|---7-----9-|-9----------9-7-9-7-|-7---7--------------------5--s----5--10\12-------|
D|----------\9---|-9---------|--------------------|----------------------------3\5-7----------------|
A|---------------|-----------|--------------------|-------------------------------------------------|
E|---------------|-----------|--------------------|-------------------------------------------------|


e|-15-13-12------------|---------------|----------------10--b-----------b----|--rb--------------------b-|
B|----------13---------|--------h-p-s--|-------------13----13-11-11----15~~~-|-15--13-12-------------15-|
G|-------------12-10-9-|-9-7-9-7-9-7\5-|---s---12-14----------------14-------|-----------12-------12----|
D|---------------------|---------------|-12\14-------------------------------|--------------14-14-------|
A|---------------------|---------------|-------------------------------------|--------------------------|
E|---------------------|---------------|-------------------------------------|--------------------------|

                                      brb rp  
e|--rb----------s------s------13-13--13--13-12--------------------------|
B|-15--13-12-13-\15-15-\17-17------------------13---p--s----------------|
G|------------------------------------------------12-10\9---------9~~~~-|
D|--------------------------------------------------------10---s--------|
A|-----------------------------------------------------------10\8-------|
E|----------------------------------------------------------------------|

03:58                                           s     brp 
e|--brp-----b------|--brp-----b------|--rbp---12\13--12--10----------|---------------------------|----------15-|
B|-15--13-15-~~~~~-|-15--13-15-~~~~~-|-15--13---------------10-------|---------------------------|----13-15----|
G|-----------------|-----------------|-------------------------10----|---h-----------------------|-12----------|
D|-----------------|-----------------|----------------------------12-|-10-12-10------------------|-------------|
A|-----------------|-----------------|-------------------------------|------------10---8---7-----|-------------|
E|-----------------|-----------------|-------------------------------|-------------------------8-|-------------|


ENJOY........
Добавлено: 29.11.2015
Вам также может быть интересно:
Другие материалы по этой песне:
  • Аккорды и текст

Страница создана 29.11.2015
http://primanota.ru/millenium/blood-on-rain-chords.htm
Привет, Гость.
Предлагаем пройти революционный курс по гитаре.
Подарок от PrimaNota.Ru, забирай!