PrimaNota.ru - самый крупный в мире бесплатный архив песенных текстов, аккордов, табулатур и нот


Millencolin - Punk Rock Rebel - аккорды и текст, таба, видео

Регистрация Запомнить меня
Войти через:  Facebook Google Twitter Vk Yandex Mail.ru

Millencolin - Punk Rock Rebel - аккорды и текст, таба, видео

Печатать
Просмотров: 163
Авторы музыки: Nikola Sarcevic, Mathias Färm, Fredrik Larzon, Erik Ohlsson
Авторы текста: Nikola Sarcevic, Mathias Färm, Fredrik Larzon, Erik Ohlsson
Punk Rock Rebel
Millencolin
		   Intro/mainriff:

|----7-----7---1010-------|
|---8-8---8-8--1010---8---|
|-/9---9-8---8-----97h9-9-|
|-------------------------|
|-------------------------|
|-------------------------|
This is played out of a B-pentatonic scale-
Mathias' favourite part of the neck.

Verse 1:
     E        B
|----------------------------|
|----------------------------|
|-9xxxxxx9-----------------9-|
|-9xxxxxx9-9xxxxxx9xxxxxx9-9-|
|-7xxxxxx7-9xxxxxx9xxxxxx9-7-|
|----------7xxxxxx7xxxxxx7---|

Chorus 1:
   E   B   D      Last time only
|------------------|----------|
|------------------|----------|
|-9xx----------9xx-|----------|
|-9xx-9xx-12xx-9xx-|-99999999-|
|-7xx-9xx-12xx-7xx-|-99999999-|
|-----7xx-10xx-----|-77777777-|
Although this doesn't sound right,
it is correct,It's just the bass runs
which make it sound weird.

Verse 2:
  E
|----|
|----|
|-9:-|
|-9:-|
|-7:-|
|----|

The bass plays verse 2 but at
the louder notes of the riff
strike the E chord above. C
what ever is easiest for you.


Chorus 2: same as chorus 1

Interlude:
  E     A
|----|------------|
|----|-1010888888-|
|-7:-|--9-9999999-|
|-7:-|------------|
|-9:-|------------|
|----|------------|

Chorus 3: Same as chorus 1

Main riff

Outro: main riff

Lead to outro:
       B               E
|-1212121212----|-1717171717----|
|-1212121212-x8-|-1717171717-x4-|
|-14b-----------|-19b-----------|
|---------------|---------------|
|---------------|---------------|
|---------------|---------------|


Order:

intro x4
verse 1 x4
Chorus 1 x4
Main riff x2
Verse 2 x16
Interlude x14
Chorus 2 x8
Main riff x2
Lead outro x2(as fades)

I am officially the first to tab this! By Jon Walbrin $j$     
Добавлено: 19.08.2013
Другие материалы по этой песне:

Страница создана 27.02.2012
http://primanota.ru/millencolin/punk-rock-rebel-chords.htm
Привет, Гость.
Предлагаем пройти революционный курс по гитаре.
Подарок от PrimaNota.Ru, забирай!