PrimaNota.ru - самый крупный в мире бесплатный архив песенных текстов, аккордов, табулатур и нот


Millencolin - Pepper - аккорды и текст, таба, бас-таба, драм-таба, видео

Регистрация Запомнить меня
Войти через:  Facebook Google Twitter Vk Yandex Mail.ru

Millencolin - Pepper - аккорды и текст, таба, бас-таба, драм-таба, видео

Печатать
Просмотров: 347
Авторы музыки: Nikola Sarcevic
Авторы текста: Nikola Sarcevic
Pepper
Millencolin
		   x=scratch

Intro:

|----------------|
|----------------|
|----------------|
|-9xx-9x-9-9-9-9-|X2
|-9xx-9x-9-9-9-9-|
|-7xx-7x-7-7-7-7-|

Verse:

|-----------------------------------9xx-9x--6-6-6-666---|
|-----------------------------------9xx-9x--6-6-6-666---|
|-----------------------------------7xx-7x--4-4-4-444---|
|-9xx-9x-9-9-9-9--9xx-9x-9-9-9-9------------------------|X2
|-9xx-9x-9-9-9-9--9xx-9x-9-9-9-9------------------------|
|-7xx-7x-7-7-7-7--7xx-7x-7-7-7-7------------------------|

Chorus:

|------------------------------------------------------|
|------------------------------------------------------|
|------------------------------------------------------|
|------------------------------------------------------|
|------11-9--999-7777-11-99------11-13--------99-------|
|-7777-----------------------777--------77777---7------|

Interlude:

Guitar1;

|----------------------------------------------|
|----------------------------------------------|
|----------------------------------------------|X8
|----------------------------------------------|
|---------22222222-66666-77777-----------------|
|-444-222--------------------------------------|

Guitar2:

|-4-4--2-2-|
|--4----2--|
|----------|X4
|----------|
|----------|
|----------|     
Добавлено: 05.09.2013
Другие материалы по этой песне:

Страница создана 22.02.2012
http://primanota.ru/millencolin/pepper-chords.htm
Привет, Гость.
Предлагаем пройти революционный курс по гитаре.
Подарок от PrimaNota.Ru, забирай!