PrimaNota.ru - самый крупный в мире бесплатный архив песенных текстов, аккордов, табулатур и нот


Millencolin - Olympic - аккорды и текст, таба, бас-таба, видео

Регистрация Запомнить меня
Войти через:  Facebook Google Twitter Vk Yandex Mail.ru

Millencolin - Olympic - аккорды и текст, таба, бас-таба, видео

Печатать
Просмотров: 225
Авторы музыки: Nikola Sarcevic, Mathias Färm, Fredrik Larzon, Erik Ohlsson
Авторы текста: Kristofer Åström
Olympic
Millencolin
		   intro 2nd riff:

    B    G     A       A

e-|---------------------------|
B-|---------------------------|
G-|-7-6-7-7-6-7-6-4-6-6/9-7-6-|
D-|---------------------------|
A-|---------------------------|
E-|---------------------------| play 2x


    B               G               A
    Could it be I'm lonely one that made everything so upside down now...

e-|------------------------------------------------------------------|
B-|------------------------------------------------------------------|
G-|-4----------------------------------------------------------------|
D-|-4---------------5---------------7--------------------------------|
A-|-2---------------5---------------7--------------------------------|
E-|-----------------3---------------5--------------------------------|


Bridge: (olympic day, you said...)

    1st guitar                2nd guitar

e-|-------------------------|-7------7-----7-----7-----|
B-|-------------------------|---7------7-----7-----7---|
G-|-4-----------------------|-----7------7-----7-----7-|
D-|-4-----5-----7-----4-----|--------------------------| 2x then go
A-|-2-----5-----7-----4-----|--------------------------| intro riff 2,
E-|-------3-----5-----2-----|--------------------------| then 2nd verse


Chorus: B / B / G / G / D / D / A / A   play 2x


solo:

e-|-------------7-------------------7----------------------7----7----|
B-|-----8---------7---------8---------7---------8--------------------|
G-|-7-7---7-9-------7-7---7---7-9-------7--/7-7---7-9---9b---9b---9b-|
D-|-----------7-------------------7-------------------7--------------|
A-|------------------------------------------------------------------|
E-|------------------------------------------------------------------|


e-|-------------7---------|  b bend
B-|-----8---------7-------|  / slide
G-|-7-7---7-9-------7-----|
D-|-----------7-------9---|
A-|-----------------------|
E-|-----------------------!

good play!     
Добавлено: 11.11.2013
Другие материалы по этой песне:

Страница создана 24.02.2012
http://primanota.ru/millencolin/olympic-chords.htm
Привет, Гость.
Предлагаем пройти революционный курс по гитаре.
Подарок от PrimaNota.Ru, забирай!