PrimaNota.ru - самый крупный в мире бесплатный архив песенных текстов, аккордов, табулатур и нот


Millencolin - Niap - текст песни, бас-таба, видео

Регистрация Запомнить меня
Войти через:  Facebook Google Twitter Vk Yandex Mail.ru

Millencolin - Niap - текст песни, бас-таба, видео

Печатать
Просмотров: 157
Уроки эстрадного вокала в Санкт-Петербурге
Авторы музыки: Nikola Sarcevic, Mathias Färm, Fredrik Larzon, Erik Ohlsson
Авторы текста: Nikola Sarcevic, Mathias Färm, Fredrik Larzon, Erik Ohlsson
-----------------------------------------------------------------------------
                             Niap - Millencolin
-----------------------------------------------------------------------------
Tabbed by: filiot96
E-mail: filiotrix@gmail.com

Tuning:Standard

Main-Riff#4x
G|---7---------5----------------7----|
D|----------333-333------------------|
A|-55-5-555---------3333-1111-55-555-|
E|-----------------------------------|

Chorus#2x
G|-----------------------------|
D|-----------------------------|
A|-333333-555555-111111-333333-|
E|-----------------------------|

Main-Riff#4x,Chorus#2x,Main-Riff#2x

Bridge#
G|------------------------------------|
D|------------------------------------|
A|-333333-111111-555555-333333-111111-|
E|------------------------------------|

Life goes on#4x
G|---7---------5------3-------5----|
D|----------333-333----------------|
A|-55-5-555---------11-111-333-333-|
E|---------------------------------|

Main-Riff#2x

End-Chorus#
G|------------------------------------------|------3x-------|---|
D|------------------------------------------|---------------|---|
A|-333333-555555-111111-333333-333333-555555|-111111-333333-|-5-|
E|------------------------------------------|---------------|---|


| /  slide up
| \  slide down
| h  hammer-on
| p  pull-off
| ~  vibrato
| +  harmonic
| x  Mute note
=============================================================================
Добавлено: 19.06.2013
Другие материалы по этой песне:
  • Аккорды и текст

Страница создана 22.06.2012
http://primanota.ru/millencolin/niap-chords.htm
Привет, Гость.
Предлагаем пройти революционный курс по гитаре.
Подарок от PrimaNota.Ru, забирай!