PrimaNota.ru - самый крупный в мире бесплатный архив песенных текстов, аккордов, табулатур и нот


Millencolin - Leona - аккорды и текст, таба, бас-таба, драм-таба, видео

Регистрация Запомнить меня
Войти через:  Facebook Google Twitter Vk Yandex Mail.ru

Millencolin - Leona - аккорды и текст, таба, бас-таба, драм-таба, видео

Печатать
Просмотров: 241
Авторы музыки: Nikola Sarcevic, Mathias Färm, Fredrik Larzon, Erik Ohlsson
Авторы текста: Nikola Sarcevic, Mathias Färm, Fredrik Larzon, Erik Ohlsson
Leona
Millencolin
		   intro/verse guitar 1

e-------------------------------------------------------------
b-------------------------------------------------------------
g-------------------------5-5-5-5-----------------------------
d-7-7-7-7-3-3-3-3-5-5-5-5-5-5-5-5-----------------------------
a-7-7-7-7-3-3-3-3-5-5-5-5-3-3-3-3-----------------------------
e-5-5-5-5-1-1-1-1-3-3-3-3-------------------------------------

intro guitar 2

e-------------------------------------------------------------
b-------------------------------------------------------------
g---------5-------7-7-5-7-9-5---------------------------------
d-7-7-7-7---------------------7-------------------------------
a-------------------------------------------------------------
e-------------------------------------------------------------

e-------------------------------------------------------------
b-------------------------------------------------------------
g-------9-7-------5-5-9-7-5-7-9-------------------------------
d-7-7-7-------------------------------------------------------
a-------------------------------------------------------------
e-------------------------------------------------------------

verse:
both guitars play guitar 1 intro with pm

chorus: + = 2x

e-------------------------------------------------------------
b-------------------------------------------------------------
g-------------------------5-5-5-5-----------------------------
d-7-7-7-7-3-3-3-3-5-5-5-5-5-5-5-5-----------------------------
a-7-7-7-7-3-3-3-3-5-5-5-5-3-3-3-3-----------------------------
e-5-5-5-5-1-1-1-1-3-3-3-3-------------------------------------

  + + + + + + + + + + + + + + + +

i am not sure about the bridge

e-----------------------------------------------------
b-----------------------------------------------------
g-----------------5-5-5-5-----------------------------
d-7-7-7-7-5-5-5-5-5-5-5-5-5-5-5-5---------------------
a-7-7-7-7-5-5-5-5-3-3-3-3-5-5-5-5---------------------
e-5-5-5-5-3-3-3-3---------3-3-3-3---------------------

after the bridge (when he sings: "leona said...")
play chorus with pm     
Добавлено: 08.12.2013
Другие материалы по этой песне:

Страница создана 23.02.2012
http://primanota.ru/millencolin/leona-chords.htm
Привет, Гость.
Предлагаем пройти революционный курс по гитаре.
Подарок от PrimaNota.Ru, забирай!