PrimaNota.ru - самый крупный в мире бесплатный архив песенных текстов, аккордов, табулатур и нот


Millencolin - Dragster - аккорды и текст, таба, бас-таба, видео

Регистрация Запомнить меня
Войти через:  Facebook Google Twitter Vk Yandex Mail.ru

Millencolin - Dragster - аккорды и текст, таба, бас-таба, видео

Печатать
Просмотров: 161
Авторы музыки: Millencolin

Dragster
Millencolin
		   Millencolin
                   Dragster

Intro and verse

E|-------------------------------------------|
B|-------------------------------------------|
G|-----7--------------4-------2--------------|
D|-----7-x5-4-5-4-----4-x3----2-4-5-4--------|
A|-----5--------------2-------0--------------|
E|-------------------------------------------|


Chorus:

E|-----------------------------------------|
B|-----------------------------------------|
G|--------------------------4--------------|
D|---5-------7------4-------4-x4-----------|
A|---5--x4---7-x4---4-x4----2--------------|
E|---3-------5------2----------------------|

E|--------------------------------|
B|--------------------------------|
G|----------------7---------------|
D|---5-----7------7-let ring------|
A|---5-x4--7-x4---5---------------|
E|---3-----5----------------------|

Play one verse and one chorus and then play  D,A,G,F# AND E.Listen to the song and play it.And then the solo:


E|----15-14---------|------------------|
B|-----------15-----|x3----------------|
G|---------------14-|------12-14-------|
D|-------------------------------------|
A|-------------------------------------|
E|-------------------------------------|




This is my first tab,so forgive mr if somethings wrong.
Feel free to send me corrections on:giggson@hotmail.com
               Bigfoot.     
Добавлено: 08.12.2013
Другие материалы по этой песне:

Страница создана 20.03.2012
http://primanota.ru/millencolin/dragster-chords.htm
Привет, Гость.
Предлагаем пройти революционный курс по гитаре.
Подарок от PrimaNota.Ru, забирай!