PrimaNota.ru - самый крупный в мире бесплатный архив песенных текстов, аккордов, табулатур и нот


Millencolin - Broken World - текст песни, таба, видео

Регистрация Запомнить меня
Войти через:  Facebook Google Twitter Vk Yandex Mail.ru

Millencolin - Broken World - текст песни, таба, видео

Печатать
Просмотров: 134
Авторы музыки: Nikola Sarcevic, Mathias Färm, Fredrik Larzon, Erik Ohlsson
Авторы текста: Mathias Färm, Fredrik Larzon, Erik Ohlsson
Song:Broken World
Album:Machine 15
Artist:Millencolin
Date Tabbed:May,2008
Guitar Tabber:Ryan Manongdo/18/Vancouver,Ca
              rhyezkie@gmail.com(gtalk)
              no_falter0x@yahoo.com(YM,friendster,facebook&myspace)

For any comments,questions or suggestions,just post a comment or PM me.Pilipino Rules!!

Gtr.Legends:
~ - let it ring
x - dead string or scratching

Gtr.Tuning:Standard(Normal)

Intro prt.1
e|----------------------|
B|----------------------|
G|------5555------------| 2x
D|-3333-5555-55-77777---|
A|-3333-3333-55-77777---|
E|-1111------33-55555---|

Intro prt.2:
Gtr.1:
e|----------------------|
B|----------------------|
G|------5555------------| 4x
D|-3333-5555-55-77777---|
A|-3333-3333-55-77777---|
E|-1111------33-55555---|

Gtr.2 Enters:
e|-----------------------------------|
B|-----------------------------------|
G|-----------------------------------|
D|-3-2-------2-------3-2-------2-----|
A|-----5-3-5---3---------5-3-5---3---|
E|-----------------------------------|

Verse 1:While in the middle...
Gtr.1
e|---------------------------------------------------------------------------------|
B|---------------------------------------------------------------------------------|
G|---------------------------------------------------------------------555555555---| 
D|-5555555555555-77777-55555--55555555-555---55555555555555--7777-5555-555555555---|
A|-3333333333333-77777-55555--33333333-333---33333333333333--7777-5555-333333333---|
E|---------------55555-33333---------------------------------5555-3333-------------|
   .............              ........       ..............

Gtr.2 Enters:
e|----------------|
B|-6-5-3----------|
G|-5-5-5-5-5555---|
D|-------5-5555---|
A|----------------|
E|----------------|


Chorus:I'm gonna get out...
Gtr.1:Play Intro prt.2

Gtr.2
e|-----------------------------------------------------------|
B|-----------------------------------------------------------|
G|-----------------------------------------------------------|
D|-3-2-------2-------3-2--2-5-3---------3-2-------2---2------|
A|-----5-3-5---3----------------5-3---------5-3-5---3---2~---|
E|-----------------------------------------------------------|


Verse 2:Turn on the TV...
Play Verse 1

Repeat Chorus:

Bridge prt.1:
e|-xxxxxxxxxx--xxxxxxxxx--xxxxxxxxx---|
B|-xxxxxxxxxx--xxxxxxxxx--xxxxxxxxx---|
G|-xxxxxxxxxx--xxxxxxxxx--xxxxxxxxx---| Scratching w/auto wah
D|-xxxxxxxxxx--xxxxxxxxx--xxxxxxxxx---|
A|------------------------------------|
E|------------------------------------|

Bridge prt.2:
Gtr.1
e|-------------      ---------|
B|-------------      ---------|
G|------------- 3x   ---------| 2x
D|-33333-7777-- Then -55555---|
A|-33333-7777--      -55555---|
E|-11111-5555--      -33333---|

Gtr.2
e|----------------------------      ------|
B|-6-5-6-5-6-5-6-5-6-5--------      ------|
G|---------------------2-4-5-- 3x   -4~---|
D|---------------------------- Then ------|
A|----------------------------      ------|
E|----------------------------      ------|

e|----------------------------      -----------|
B|-6-5-6-5-6-5-6-5-6-5--------      -----------|
G|---------------------2-4-5-- 3x   -4~--9~~---|
D|---------------------------- Then -----------|
A|----------------------------      -----------|
E|----------------------------      -----------|

Repeat Chorus Until the End:


End...


Broken World Lyrics:

Verse 1:
While in the middle of the winter it's summer
Then in the middle of summer it's freezing cold
And I wonder, who's wet behind their ears?
A broken world, well ain't that a bummer?
To get from mammoth to pizza took us 27, 000 well spent years

Chorus:
I'm gonna get out of the broken world
I'm just about to discover new land
Get out of the broken world and start a band

Verse 2:
Turn on the tv I see troubles of mankind
There is a weird old man who's sayin'
"I'm the decider, you've gotta stay that course"

All of a sudden I've got Shakespeare on my mind,
All of a sudden Richard goes
"horse, a horse, my kingdom for a horse"

I'm gonna get out of the broken world
I'm just about to discover new land
Get out of the broken world and start a band

Добавлено: 24.11.2013
Другие материалы по этой песне:
  • Аккорды и текст

Страница создана 05.10.2013
http://primanota.ru/millencolin/broken-world-chords.htm
Привет, Гость.
Предлагаем пройти революционный курс по гитаре.
Подарок от PrimaNota.Ru, забирай!