PrimaNota.ru - самый крупный в мире бесплатный архив песенных текстов, аккордов, табулатур и нот


Millencolin - Biftek Supernova - текст песни, таба, видео

Регистрация Запомнить меня
Войти через:  Facebook Google Twitter Vk Yandex Mail.ru

Millencolin - Biftek Supernova - текст песни, таба, видео

Печатать
Просмотров: 93
Авторы музыки: Nikola Sarcevic, Mathias Färm, Fredrik Larzon, Erik Ohlsson
Авторы текста: Nikola Sarcevic, Mathias Färm, Fredrik Larzon, Erik Ohlsson
Artist: Millencolin
Song: Biftek Supernova
Album: Kingwood


Standard Tuning (EADGBE)


Intro

E-------------------------------------------------------------------|
B-------------------------------------------------------------------|   
G--4-4-4-4-4-4-4-4---------------------------------4-4-4-4-4-4-4-4--|   x2
D--4-4-4-4-4-4-4-4-2-2-2-2-2-2-2-2-5-5-5-5-7-7-7-7-4-4-4-4-4-4-4-4--|
A--2-2-2-2-2-2-2-2-2-2-2-2-2-2-2-2-5-5-5-5-7-7-7-7-2-2-2-2-2-2-2-2--|
E------------------0-0-0-0-0-0-0-0-3-3-3-3-5-5-5-5------------------|


VERSE 1

   . .... . .... . .... . .... . .... . .... . .... . ....
E-----------------------------------------------------------|
B-----------------------------------------------------------|   
G--4-4444-4-4444-----------------------------4-4444-4-4444--|   
D--4-4444-4-4444-2-2222-2-2222-5-5555-7-7777-4-4444-4-4444--|
A--2-2222-2-2222-2-2222-2-2222-5-5555-7-7777-2-2222-2-2222--|
E----------------0-0000-0-0000-3-3333-5-5555----------------|
   . .... . .... . .... . .... . .... . .... . .... . .... 

   . .... . .... . .... . .... . .... . .... . .... 
E-----------------------------------------------------------------|
B-----------------------------------------------------------------|   
G--4-4444-4-4444-----------------------------4-4444-4-4-4-4--7-4--|   
D--4-4444-4-4444-2-2222-2-2222-5-5555-7-7777-4-4444-4-4-4-4--7-4--|
A--2-2222-2-2222-2-2222-2-2222-5-5555-7-7777-2-2222-2-2-2-2--5-2--|
E----------------0-0000-0-0000-3-3333-5-5555----------------------|
   . .... . .... . .... . .... . .... . .... . .... 


CHORUS 1

E-------------------------------|
B-------------------------------|   x3
G--4-4444--------7-7777---------|   
D--4-4444-5-5555-7-7777-7-7777--|
A--2-2222-5-5555-5-5555-7-7777--|
E---------3-3333--------5-5555--|

E--------------------------------------------|
B--------------------------------------------|   
G-----------4-4-4-4-4-4-4-4-4-4-4-4-4-4-4-4--|   
D--4~----7--4-4-4-4-4-4-4-4-4-4-4-4-4-4-4-4--|
A--4~----7--2-2-2-2-2-2-2-2-2-2-2-2-2-2-2-2--|
E--2~----5-----------------------------------|


VERSE 2

   . .... . .... . .... . .... . .... . .... . .... . ....
E-----------------------------------------------------------|
B-----------------------------------------------------------|   
G--4-4444-4-4444-----------------------------4-4444-4-4444--|   
D--4-4444-4-4444-2-2222-2-2222-5-5555-7-7777-4-4444-4-4444--|
A--2-2222-2-2222-2-2222-2-2222-5-5555-7-7777-2-2222-2-2222--|
E----------------0-0000-0-0000-3-3333-5-5555----------------|
   . .... . .... . .... . .... . .... . .... . .... . .... 

   . .... . .... . .... . .... . .... . .... . .... 
E------------------------------------------------------------|
B------------------------------------------------------------|   
G--4-4444-4-4444-----------------------------4-4444-4-4-4-4--|   
D--4-4444-4-4444-2-2222-2-2222-5-5555-7-7777-4-4444-4-4-4-4--|
A--2-2222-2-2222-2-2222-2-2222-5-5555-7-7777-2-2222-2-2-2-2--|
E----------------0-0000-0-0000-3-3333-5-5555-----------------|
   . .... . .... . .... . .... . .... . .... . .... 


CHORUS 2

Guitar 1
E----------------------------------------------------------|
B----------------------------------------------------------|   
G--11-11-11-11-11-11-11-11-3-3-3-3-3-3-3-3-7-7-7-7-9-9-9-9-|   
D--x--x--x--x--x--x--x--x--x-x-x-x-x-x-x-x-x-x-x-x-x-x-x-x-|
A--9--9--9--9--9--9--9--9--1-1-1-1-1-1-1-1-5-5-5-5-7-7-7-7-|
E----------------------------------------------------------|

E-------------------------------------------------------------------|
B-------------------------------------------------------------------|   x2  
G--11-11-11-11-11-11-11-11-11-11-11-11-11-11-11-11-3-3-3-3-3-3-3-3--|   
D--x--x--x--x--x--x--x--x--x--x--x--x--x--x--x--x--x-x-x-x-x-x-x-x--|
A--9--9--9--9--9--9--9--9--9--9--9--9--9--9--9--9--1-1-1-1-1-1-1-1--|
E-------------------------------------------------------------------|

E-------------------------------|
B-------------------------------|   
G--7-7-7-7-9-9-9-9-11-11-11-11--|   
D--x-x-x-x-x-x-x-x-x--x--x--x---|
A--5-5-5-5-7-7-7-7-9--9--9--9---|
E-------------------------------|

Guitar 2 
E-----------------------------------------------------------|
B-----------------------------------------------------------|   
G--4-4-4-4-4-4-4-4---------------------------------4-4-4-4--|   x2
D--4-4-4-4-4-4-4-4-2-2-2-2-2-2-2-2-5-5-5-5-7-7-7-7-4-4-4-4--|
A--2-2-2-2-2-2-2-2-2-2-2-2-2-2-2-2-5-5-5-5-7-7-7-7-2-2-2-2--|
E------------------0-0-0-0-0-0-0-0-3-3-3-3-5-5-5-5----------|

E--------------------------------------------|
B--------------------------------------------|   
G-----------4-4-4-4-4-4-4-4-4-4-4-4-4-4-4-4--|   
D--4~----7--4-4-4-4-4-4-4-4-4-4-4-4-4-4-4-4--|
A--4~----7--2-2-2-2-2-2-2-2-2-2-2-2-2-2-2-2--|
E--2~----5-----------------------------------|


ChORUS/POST CHORUS

Guitar 1
E-------------------------------|
B-------------------------------|   x3
G--4-4444--------7-7777---------|   
D--4-4444-5-5555-7-7777-7-7777--|
A--2-2222-5-5555-5-5555-7-7777--|
E---------3-3333--------5-5555--|

(Solo)
E-------------------------------------------------------------|
B-------------------------------------------------------------|   x4  
G--12-9-----------12-9-----------12-9~-----10/9-9-9-9-9-9-9-9-|   
D-------12-9-9/12------12-9-9/12--------12--------------------|
A-------------------------------------------------------------|
E-------------------------------------------------------------|

Guitar 2
E-------------------------------|
B-------------------------------|   x3
G--4-4444--------7-7777---------|   
D--4-4444-5-5555-7-7777-7-7777--|
A--2-2222-5-5555-5-5555-7-7777--|
E---------3-3333--------5-5555--|

E--------------------------------------------|
B--------------------------------------------|   
G-----------4-4-4-4-4-4-4-4-4-4-4-4-4-4-4-4--|   
D--4~----7--4-4-4-4-4-4-4-4-4-4-4-4-4-4-4-4--|
A--4~----7--2-2-2-2-2-2-2-2-2-2-2-2-2-2-2-2--|
E--2~----5-----------------------------------|


CHORUS/OUTRO

E------------------|
B------------------|   
G------------------|   
D--7---------------|
A--7--(Pickslide)--|
E--5---------------|

E-------------------------------|
B-------------------------------|   x3
G--4-4444--------7-7777---------|   
D--4-4444-5-5555-7-7777-7-7777--|
A--2-2222-5-5555-5-5555-7-7777--|
E---------3-3333--------5-5555--|

E-------------------------|
B-------------------------|   
G-------------------------|   
D--555-5-555-5-555-5-7-9--|
A--555-5-555-5-555-5-7-9--|
E--333-3-333-3-333-3-5-7--|

E-------------------------------|
B-------------------------------|   x3
G--4-4444--------7-7777---------|   
D--4-4444-5-5555-7-7777-7-7777--|
A--2-2222-5-5555-5-5555-7-7777--|
E---------3-3333--------5-5555--|

E-------------------------|
B-------------------------|   
G-------------------------|   
D--555-5-555-5-555-5-7-9--|
A--555-5-555-5-555-5-7-9--|
E--333-3-333-3-333-3-5-7--|

E-------------------------------|
B-------------------------------|   x3
G--4-4444--------7-7777---------|   
D--4-4444-5-5555-7-7777-7-7777--|
A--2-2222-5-5555-5-5555-7-7777--|
E---------3-3333--------5-5555--|

E-----------------------|
B-----------------------|   
G--4-444-4-444-4-444-4--|   
D--4-444-4-444-4-444-4--|
A--2-222-2-222-2-222-2--|
E-----------------------|


Добавлено: 25.09.2013
Другие материалы по этой песне:

Страница создана 24.04.2012
http://primanota.ru/millencolin/biftek-supernova-chords.htm
Привет, Гость.
Предлагаем пройти революционный курс по гитаре.
Подарок от PrimaNota.Ru, забирай!