PrimaNota.ru - самый крупный в мире бесплатный архив песенных текстов, аккордов, табулатур и нот


Millencolin - A-Ten - аккорды и текст, таба, бас-таба, видео

Регистрация Запомнить меня
Войти через:  Facebook Google Twitter Vk Yandex Mail.ru

Millencolin - A-Ten - аккорды и текст, таба, бас-таба, видео

Печатать
Просмотров: 136
Авторы музыки: Nikola Sarcevic, Mathias Färm
Авторы текста: Nikola Sarcevic
A-Ten
Millencolin
#-----------------------------------------------------------------------------#
#-- File created with Instab - http://www.pconline.com/~smcarey/instab.html --#
#-----------------------------------------------------------------------------#

Author/Artist: Millencolin
Title: A-ten
Album: Pennybridge Pioneers
Transcribed by: Salvatore Span?
Email: salspan17@virgilio.it

 I hope it sounds good,expecially the solo .
This song is very cool and if you got another guitar man with you
you could have a very big fun.

-----5-------5-------5-----7-----6-----5--------------------------------------|
--------7-------7-----7------7-----7-----7------------------------------------|
----------7-------7-----7------7-----7-----7----------------------------------|
------------------------------------------------------------------------------|
------------------------------------------------------------------------------|
------------------------------------------------------------------------------|
 this the  intro riff that continue till the verses and during the chorus

-------------------------------------------------------------------------------|
-------------------------------------------------------------------------------|
---44444444444444444444444444444444444444444444444---4-4-4-4-4-4-4-4-----------|
---44444444444444444444444444444444444444444444444---4-4-4-4-4-4-4-4-----------|
---22222222222222222222222222222222222222222222222---2-2-2-2-2-2-2-2-----------|
-------------------------------------------------------------------------------|
 pm-------------------------------------   this is guitar 2--------------------|

------------------------------------------------------------------------------|
------------------------------------------------------------------------------|
--5-5-5-5-5-5-5-5--7-7-7-7-7-7-7-7--------------------------------------------|
--5-5-5-5-5-5-5-5--7-7-7-7-7-7-7-7----------------------x-2-------------------|
--3-3-3-3-3-3-3-3--5-5-5-5-5-5-5-5--------------------------------------------|
------------------------------------------------------------------------------|


------------------------------------------------------------------------------|
------------------------------------------------------------------------------|
-4-4-4-4-4-4-4-4---5-5-5-5-5-5-5----9---9---99--9--99--99---------------------|
-4-4-4-4-4-4-4-4---5-5-5-5-5-5-5----9---9---99--9--99--99---------------------|
-2-2-2-2-2-2-2-2---3-3-3-3-3-3-3----7---7---77--7--77--77---------------------|
------------------------------------------------------------------------------|


------------------------------------------------------------------------------|
------------------------------------------------------------------------------|
--4-4-4-4-4-4-4-4---5-5-5-5-5-5-5-5-------------------------------------------|
--4-4-4-4-4-4-4-4---5-5-5-5-5-5-5-5-------------------------------------------|
--2-2-2-2-2-2-2-2---3-3-3-3-3-3-3-3-------------------------------------------|
------------------------------------------------------------------------------|
                                    then begin the verse   m=muted s=stroked

------------------------------------------------------------------------------|
------------------------------------------------------------------------------|
--7-7-7--7-7-7--7-7-7--7-7-7--7-7-7-7--5--5---5--5--5--5--5--5--5--5--5--5----|
--7-7-7--7-7-7--7-7-7--7-7-7--7-7-7-7--5--5---5--5--5--5--5--5--5--5--5--5----|
--5-5-5--5-5-5--5-5-5--5-5-5--5-5-5-5--3--3---3--3--3--3--3--3--3--3--3--3----|
------------------------------------------------------------------------------|
  m m s  m m s  m m s  m m s  m s s s  m  m   s  m  m  s  m  m  s  m  m  s

------------------------------------------------------------------------------|
------------------------------------------------------------------------------|
-5--5---5-5-4-4-4--4-4-4--4-4-4--4-4-4--4-4-44-5-5-5--5-5-5--5-5-5--5-5-5--5--|
-5--5---5-5-4-4-4--4-4-4--4-4-4--4-4-4--4-4-44-5-5-5--5-5-5--5-5-5--5-5-5--5--|
-3--3---3-3-2-2-2--2-2-2--2-2-2--2-2-2--2-2-22-3-3-3--3-3-3--3-3-3--3-3-3--3--|
------------------------------------------------------------------------------|
 m  s   s s m m s  m m s  m m s  m m s  m s ss m m s  m m s  m m s  m m s  m

------------------------------------------------------------------------------|
------------------------------------------------------------------------------|
-5-5--------------------------------------------------------------------------|
-5-5---x-2--------------------------------------------------------------------|
-3-3--------------------------------------------------------------------------|
------------------------------------------------------------------------------|
 s s splay this pattern for 2 times

--7-8---5-5555----------------------------------------------------------------|
--7-8---5-5555----------------------------------------------------------------|
------------------------------------------------------------------------------|
------------------------------------------------------------------------------|
------------------------------------------------------------------------------|
------------------------------------------------------------------------------|
 during the verses guitar 2 play something like this

--------------------------------5------5------5-----6-----7-----5-----5-----5-|
-----------------------------------7------7-----7-----7-----7-----7-----7-----|
-------------------------------------7------7-----7-----7-----7-----7-----7---|
---------------6--------------------------------------------------------------|
---------5---7----7-----------------------------------------------------------|
--5--7------------------------------------------------------------------------|
 then guitar 1 throw the chorus with a pattern taken from A maj scale  and

--------------------------------5------5-----5------6------7-----5-----5----5-|
-----------------------------------7-----7------7------7-----7-----7-----7----|
-------------------------------------7-----7------7------7-----7-----7-----7--|
-----------6------------------------------------------------------------------|
------5--7-----7--------------------------------------------------------------|
-5--7-------------------------------------------------------------------------|
 play the intro riff                then return to the verses

------------------------------------------------------------------------------|
------------------------------------------------------------------------------|
------------------------------------------------------------------------------|
---7-7-7-7-7-7-7-7---5-5-5-5-5-5-5-5---3-3-3-3-3-3-3-3-3----------------------|
---7-7-7-7-7-7-7-7---5-5-5-5-5-5-5-5---3-3-3-3-3-3-3-3-3----------------------|
---5-5-5-5-5-5-5-5---3-3-3-3-3-3-3-3---1-1-1-1-1-1-1-1-1----------------------|
 guitar 2 during the chorus plays like this  and then go in verse riff

------------------------------------------------------------------------------|
------------------------------------------------------------------------------|
--5-5-5-5-5-5-5-5--7--9-9-9-9-9-9-9-9--11-------------------------------------|
-----------------------------------------------------------------------x4-----|
--3-3-3-3-3-3-3-3--5--7-7-7-7-7-7-7-7--9--------------------------------------|
------------------------------------------------------------------------------|
 after this bridge here the rithm for the guitar 2 on the solo, down here

--33333333-5--77777777-9------------------------------------------------------|
--33333333-5--77777777-9------------------------------------------------------|
------------------------------------------------------------------------------|
---------------------------------------x4-------------------------------------|
------------------------------------------------------------------------------|
------------------------------------------------------------------------------|
 guitar 1 during the bridge

------------------------------------------------------------------------------|
---7b77777777r--5--------------5-5b--5-------5----5b-------5--------5b-7-5----|
-------------------7--5--5--7-----------7-7----7-----5--7b----7-5-7--------7--|
------------------------------------------------------------------------------|
------------------------------------------------------------------------------|
------------------------------------------------------------------------------|
  this above for all the solo

------------------------------------------------------------------------------|
--7b-------------------5b555---7b777--9b--------------------------------------|
--------5b555---7b777---------------------------------------------------------|
------------------------------------------------------------------------------|
------------------------------------------------------------------------------|
------------------------------------------------------------------------------|
 after solo play chorus till the end and finish the song with F5

------------------------------------------------------------------------------|
------------------------------------------------------------------------------|
------------------------------------------------------------------------------|
------------------------------------------------------------------------------|
--77777777---55555555--33333333-----------------------------------------------|
--55555555---33333333--11111111-----------------------------------------------|
 this above is under the solo  an d till the end with chorus pattern
Добавлено: 20.03.2012
Другие материалы по этой песне:

Страница создана 20.03.2012
http://primanota.ru/millencolin/a-ten-2-chords.htm
Привет, Гость.
Предлагаем пройти революционный курс по гитаре.
Подарок от PrimaNota.Ru, забирай!