PrimaNota.ru - самый крупный в мире бесплатный архив песенных текстов, аккордов, табулатур и нот


Milk Inc - Run - текст песни, таба, видео

Регистрация Запомнить меня
Войти через:  Facebook Google Twitter Vk Yandex Mail.ru

Milk Inc - Run - текст песни, таба, видео

Печатать
Просмотров: 143
Уроки эстрадного вокала в Санкт-Петербурге
Here's the piano intro for guitar, have fun!

Version 1:

E|--------7--------7--------------6--------6--------------4--------4--------------4-----4--1--2--1--|
B|--2--4-----2--4-----2--4--2--4-----2--4-----2--4--2--4-----2--4-----2--4--2--4-----2--------------|
G|--------------------------------------------------------------------------------------------------|
D|--------------------------------------------------------------------------------------------------|
A|--------------------------------------------------------------------------------------------------|
E|--------------------------------------------------------------------------------------------------|


                                            ALTERNATE


Version 2:

E|--------7--------7--------------6--------6--------------------------------------------------------|
B|--------------------------------------------------------9--------9--------------9-----9--6--7--6--|
G|--6--8-----6--8-----6--8--6--8-----6--8-----6--8--6--8-----6--8-----6--8--6--8-----6--------------|
D|--------------------------------------------------------------------------------------------------|
A|--------------------------------------------------------------------------------------------------|
E|--------------------------------------------------------------------------------------------------|


It's easier if you play this with a capo on the 6th fret, so that would be this:


E|--------1--------1--------------0--------0--------------------------------------------------------|
B|--------------------------------------------------------3--------3--------------3-----3--0--1--0--|
G|--0--2-----0--2-----0--2--0--2-----0--2-----0--2--0--2-----0--2-----0--2--0--2-----0--------------|
D|--------------------------------------------------------------------------------------------------|
A|--------------------------------------------------------------------------------------------------|
E|--------------------------------------------------------------------------------------------------|
Добавлено: 14.05.2014
Другие материалы по этой песне:
  • Аккорды и текст

Страница создана 13.06.2012
http://primanota.ru/milk-inc/run-chords.htm
Привет, Гость.
Предлагаем пройти революционный курс по гитаре.
Подарок от PrimaNota.Ru, забирай!