PrimaNota.ru - самый крупный в мире бесплатный архив песенных текстов, аккордов, табулатур и нот


Milk Inc - Oceans Apart - аккорды и текст, таба, видео

Регистрация Запомнить меня
Войти через:  Facebook Google Twitter Vk Yandex Mail.ru

Milk Inc - Oceans Apart - аккорды и текст, таба, видео

Печатать
Просмотров: 303
Уроки эстрадного вокала в Санкт-Петербурге
Oceans Apart
Milk Inc
Intro: 

e|--------8--7----------8--7-------------------------|
B|---------------8--10-------8--10---8--6--8--5------|
G|---------------------------------------------------|
D|---------------------------------------------------|
A|---------------------------------------------------|
E|---------------------------------------------------|

e|-----8--7-------8--7--8--10------------------------|
B|----------8--10-------------8--8—7/5--4/1----------|
G|---------------------------------------------------|
D|---------------------------------------------------|
A|---------------------------------------------------|
E|---------------------------------------------------|




Am
Six o'clock in the morning,
C
A plane just touched the ground.
G
My body is here but my heart stays there,
F
'cause it knows what I've found.

Am
Eight o'clock in the morning,
C
A taxi drives uptown.
G
The city hides her lonely tears,
F
'cause it knows what I've found.

C                 G
Oceans apart,
Am         F        
I'm still thinking of you,
C                G
Tears in my heart,
Am           F
All my dreams up torn in two.

Am
Eight o'clock in the evening,
C
the phone just lies around.
G
Friends they come and understand,
F
'cause they know what I've found.

Am
It's two after midnight
C
I'm woken by a sound.
G
I look outside there's no one there,
F
that knows just what I've found.

C                 G
Oceans apart,
Am         F        
I'm still thinking of you,
C                G
Tears in my heart,
Am           F
All my dreams up torn in two.

F                  G
As the sun touches the ocean,
Am
I know it touches you.
F                                    Dm
As clouds embrace the moonlight,
G
I still think of you.
(x2)

I still think of you...

I still think of you... 

Добавлено: 28.03.2012
Другие материалы по этой песне:
  • Аккорды и текст

Страница создана 28.03.2012
http://primanota.ru/milk-inc/oceans-apart-chords.htm
Привет, Гость.
Предлагаем пройти революционный курс по гитаре.
Подарок от PrimaNota.Ru, забирай!