PrimaNota.ru - самый крупный в мире бесплатный архив песенных текстов, аккордов, табулатур и нот


Milk Inc - In My Eyes - текст песни, таба, видео

Регистрация Запомнить меня
Войти через:  Facebook Google Twitter Vk Yandex Mail.ru

Milk Inc - In My Eyes - текст песни, таба, видео

Печатать
Просмотров: 178
Авторы музыки: Filip Vandueren, Ivo Donckers, Regi

Song: In My Eyes
Artist: Milk Inc.
Album: Apocalypse Cow
Tabbed by: Yannick Vranckx

I couldn't find any tabs for this song, so I tried to
figure it out by ear + watching live video's of the
song. Enjoy!


Intro:  Am Am Am Am

Verses: 2x

    Am  Am  F   G
e|--------------------------------------------------|
B|--------------------------------------------------|
G|--2---2-------------------------------------------|
D|--2---2---3---5-----------------------------------|
A|--0---0---3---5-----------------------------------|
E|----------1---3-----------------------------------|

    Dm  Dm  F   G
e|--------------------------------------------------|
B|--------------------------------------------------|
G|--7---7-------------------------------------------|
D|--7---7---3---5-----------------------------------|
A|--5---5---3---5-----------------------------------|
E|----------1---3-----------------------------------|

Tune during verses:

e|---------------------------------|
B|-----5-6-8-----------------------|
G|-----------7---------------------|
D|-------------5-------------------|
A|---------------------------------|
E|---------------------------------|


e|-----8p7-------------------------|
B|---------8/10--------------------|
G|---------------------------------|
D|---------------------------------|
A|---------------------------------|
E|---------------------------------|

Chorus chords:

    Am  C   F   G
e|--------------------------------------------------|
B|--------------------------------------------------|
G|--2---5-------------------------------------------|
D|--2---5---3---5-----------------------------------|
A|--0---3---3---5-----------------------------------|
E|----------1---3-----------------------------------|

Tune during the chorus:

e|--------------------------------------------------|
B|-------------------------------17-18-20-----------|
G|-19h21p19--17h19p17--16h17p16-----------19--------|
D|-------------------------------------------17-----|
A|--------------------------------------------------|
E|--------------------------------------------------|


e|-------------------------------20p19--------------|
B|-------------------------------------20/22--------|
G|-19h21p19--17h19p17--16h17p16---------------------|
D|--------------------------------------------------|
A|--------------------------------------------------|
E|--------------------------------------------------|

Bridge (= same chords as chorus, but clean):

e|--------------------------------------------------|
B|--------------------------------------------------|
G|-----2--------2--------5--------5-----------------|
D|---2---2----2---2----5---5----5---5------3--------|
A|-0--------0--------3--------3----------3---3------|
E|-------------------------------------1------------|

e|--------------------------------------------------|
B|--------------------------------------------------|
G|--------------------------------------------------|
D|-----3--------5-------5---------------------------|
A|---3---3----5---5---5---5-------------------------|
E|-1--------3-------3-------------------------------|
Добавлено: 17.07.2012
Другие материалы по этой песне:
  • Аккорды и текст

Страница создана 02.04.2012
http://primanota.ru/milk-inc/in-my-eyes-chords.htm
Привет, Гость.
Предлагаем пройти революционный курс по гитаре.
Подарок от PrimaNota.Ru, забирай!