PrimaNota.ru - самый крупный в мире бесплатный архив песенных текстов, аккордов, табулатур и нот


Miles Davis - Bags Groove - таба, видео

Регистрация Запомнить меня
Войти через:  Facebook Google Twitter Vk Yandex Mail.ru

Miles Davis - Bags Groove - таба, видео

Печатать
Просмотров: 181
Авторы музыки: Milt Jackson

-------------------------------------------------------------------------------
                             Bags' Groove (Take 1) - Miles Davis
-------------------------------------------------------------------------------
Tabbed by: Peter
E-mail:

Tuning:Standard

e|---------------------------------------------------------------------------|
B|-----/13~--------11-9-11-----9----9----------------------------------------|
G|-10----------------------------10-------10-8-10~--8------------------------|
D|---------------------------------------------------------------------------|
A|---------------------------------------------------------------------------| x3
E|---------------------------------------------------------------------------|

e|---------------------------------------------------------------------------|
B|-------9~---------8----8---------------------------------------------------|
G|-10-----------------10-------10-8-10-----8----8~---------------------------|
D|-------------------------------------------10-----10-----------------------|
A|---------------------------------------------------------------------------| x3
E|---------------------------------------------------------------------------|


************************************

| ~   ring out
| /   slide up

************************************
Добавлено: 08.08.2015
Вам также может быть интересно:
Другие материалы по этой песне:
  • Аккорды и текст

Страница создана 08.08.2015
http://primanota.ru/miles-davis/bags-groove-chords.htm
Привет, Гость.
Предлагаем пройти революционный курс по гитаре.
Подарок от PrimaNota.Ru, забирай!