PrimaNota.ru - самый крупный в мире бесплатный архив песенных текстов, аккордов, табулатур и нот


Milburn - Showroom - текст песни, таба, бас-таба, видео

Регистрация Запомнить меня
Войти через:  Facebook Google Twitter Vk Yandex Mail.ru

Milburn - Showroom - текст песни, таба, бас-таба, видео

Печатать
Просмотров: 214
Уроки эстрадного вокала в Санкт-Петербурге
Showroom-Milburn

/ = slide up
 = slide down

Intro

Guitar #1:

e-------8---11---8--------8---11---8------|
B---8----------------6/8------------------|
G-----------------------------------------|
D-----------------------------------------|
A-----------------------------------------|
E-----------------------------------------|

Guitar #2 (can probably play these as power chords also):
e---------------------------------------------------|
B---------------------------------------------------|
G---------------------------------------------------|
D---------------------------------------------------|
A----------------9-9-8-8--------------9-9-8-8-------|
E---8-8-11-11------------8-8-11-11------------------|

Guitar #2 keeps playing that through verse

Bridge (“the book that you're reading…)
e---------------------------------------------------|
B---------------------------------------------------|
G---------------------------------------------------|
D---8/10--------------------------------------------|
A---8/10--------------------------------------------|
E---6/-8--------------------------------------------|

Repeat a few times then play G power chord

Chorus

Guitar #1:
e------------------------------------------------------------|
B------------------------------------------------------------|
G------------------------------------------------------------|
D------------------------------------------------------------|
A---------------------------10-10-14-14-10-10-14-14----------|
E-8-8-11-11-8-8-11-11----------------------------------------|

Then play Fm, Gm, Fm, Gm, Cm, Eb, Fm, Gm, G#, Bb
Добавлено: 15.06.2012
Другие материалы по этой песне:

Страница создана 25.02.2012
http://primanota.ru/milburn/showroom-chords.htm
Привет, Гость.
Предлагаем пройти революционный курс по гитаре.
Подарок от PrimaNota.Ru, забирай!