PrimaNota.ru - самый крупный в мире бесплатный архив песенных текстов, аккордов, табулатур и нот


Milburn - Last Bus - текст песни, таба, видео

Регистрация Запомнить меня
Войти через:  Facebook Google Twitter Vk Yandex Mail.ru

Milburn - Last Bus - текст песни, таба, видео

Печатать
Просмотров: 164
Уроки эстрадного вокала в Санкт-Петербурге
This is my first tab ever, it sounds about right. I know I've kind of mixed the 2
guitar parts together.

Please rate and also feel free to e-mail me with any corrections at 
eddy_r03(at)hotmail.com
Standard Tuning
                        Milburn – Last Bus
Intro:
E||-------------------------------|
B||-------------------------------|
G||-------------------------------|
D||-4-4-2-2-1-1-2-2\4-4-2-2-1-1---|
A||-----------------------------4-|
E||-------------------------------|


E|----------------------------------------------------------------|
B|----------------------------------------------------------------|
G|-----4------4------4------4-------------------4------4-4\6-4----|
D|---4------4------4------4-------4------4----4------4------------|
A|-2------2------2------2-------4------4----2------2--------------|
E|----------------------------2------2----------------------------|

             “alright…”
E|----------------------------------------------------------------|
B|----------------------------------------------------------------|
G|-----4------4------4------4-------------------------------------|
D|---4------4------4------4--------4------4------4----------------|
A|-2------2------2------2--------4------4------4------0-----------|
E|-----------------------------2------2------2------2---2-1-0-----|


E|----------------------------------------------------------------|
B|----------------------------------------------------------------|
G|-----4-------4-------4------4-4\6-4-----------------------------|
D|---4-------4-------4------4--------------4------4------4--------|
A|-2------2-------2------2--------------4-------4------4----------|
E|------------------------------------2-------2------2------------|

                     “See ya when…”  
E|--------------4-4-4---6----7-7-7--7-7-7--4-4-4---6---7-7-7------|
B|--------------5-5-5---7----7-7-7--7-7-7--5-5-5---7---7-7-7------|
G|--------------6-6-6---8----8-8-8--8-8-8--6-6-6---8---8-8-8------|
D|--------------6-6-6---8----9-9-9--9-9-9--6-6-6---8---9-9-9------|
A|----0---------4-4-4---6----9-9-9--9-9-9--4-4-4---6---9-9-9------|
E|--2---2-1-0----------------7-7-7--7-7-7--------------7-7-7------|

   B      C#m    D#m    B      G#m    C#m     D#m 
E|-7-7-7--4-4-4--6-6-6--7-7-7--4-4-4--4-4-4---6-------------------|
B|-7-7-7--5-5-5--7-7-7--7-7-7--4-4-4--5-5-5---7-------------------|
G|-8-8-8--6-6-6--8-8-8--8-8-8--5-5-5--6-6-6---8-------------------|
D|-9-9-9--6-6-6--8-8-8--9-9-9--6-6-6--6-6-6---8-------------------|
A|-9-9-9--4-4-4--6-6-6--9-9-9—-6-6-6--4-4-4---6-------------------|
E|-7-7-7----------------7-7-7--4-4-4------------------------------|

    
E|----------------------------------------------------------------|
B|----------------------------------------------------------------|
G|-----4------4------4------4-4\6-4--------------------4------4---|
D|---4------4------4------4--------------4------4----4------4-----|
A|-2------2------2------2--------------4------4----2------2-------|
E|-----------------------------------2------2---------------------|


E|----------------------------------------------------------------|
B|----------------------------------------------------------------|
G|-----4------4------4------4-4\6-4-------------------------------|
D|---4------4------4------4--------------4------4------4----------|
A|-2------2------2------2--------------4------4------4------------|
E|-----------------------------------2------2------2--------------|

   “not got much…”
E|--------------4-4-4---6----7-7-7--7-7-7--4-4-4---6---7-7-7------|
B|--------------5-5-5---7----7-7-7--7-7-7--5-5-5---7---7-7-7------|
G|--------------6-6-6---8----8-8-8--8-8-8--6-6-6---8---8-8-8------|
D|--------------6-6-6---8----9-9-9--9-9-9--6-6-6---8---9-9-9------|
A|---0----------4-4-4---6----9-9-9--9-9-9--4-4-4---6---9-9-9------|
E|-2---2-1-0-----------------7-7-7--7-7-7--------------7-7-7------|

                                         “I'll see you around…”
E|-7-7-7--4-4-4--6-6-6--7-7-7--4-4-4—-4-4-4---6-------------------|
B|-7-7-7--5-5-5--7-7-7--7-7-7--4-4-4—-5-5-5---7-------------------|
G|-8-8-8--6-6-6--8-8-8--8-8-8--5-5-5--6-6-6---8-------------------|
D|-9-9-9--6-6-6--8-8-8--9-9-9--6-6-6--6-6-6---8-------------------|
A|-9-9-9--4-4-4--6-6-6--9-9-9--6-6-6--4-4-4---6-------------------|
E|-7-7-7----------------7-7-7--4-4-4------------------------------|
                                       
Solo:
E|------------------------------------------------|
B|------------------------------------------------|
G|------------------------------------------------|
D|------------------------------------------------|
A|------------------------------------------6-6-6-|
E|--7-7-7-7-7-7-7-4--7-7-7-7-7-7-7-4--7-7-7-------|


E|------------------------------------------------|
B|------------------------------------------------|
G|------------------------------------------------|
D|------------------------------------------------|
A|--4-4-9-9-9-9-9-9-9---11-11-11-9-9-9----9-------|
E|-------------------------------------11---------|


E|------------------------------------------------|
B|------------------------------------------------|
G|----------------------------------------8-8-8---|
D|-----------------------9-9-9-9-9-9-9-9----------|
A|--11-11-11-9-9-9----9---------------------------|
E|-----------------11-----------------------------|


E|------------------------------------------------|
B|--------------------9-9-9-7-7-------9-9-9-7-7---|
G|--6-6-6-----------------------------------------|
D|--------9-8---9-9-9-----------9-9-9-------------|
A|------------------------------------------------|
E|------------------------------------------------|


E|------------------------------------------------|
B|--------9-9-9-7-7------9-9-9-7-7----------------|
G|------------------------------------8-9-8-6---6-|
D|--9-9-9-----------9-9-9---------------------9---|
A|------------------------------------------------|
E|------------------------------------------------|


E|--------------------------------------7---------|
B|----------------------9-9-9-7-7---7-------------|
G|--8-9-8-6---------------------------8-----------|
D|----------9-8---9-9-9-----------9---------------|
A|------------------------------------------------|
E|------------------------------------------------|

       “I'll see ya…”
E|--4-4-4---6-------11-14-11---------11-14-11-----|
B|--5-5-5---7----12----------12---12----------12--|
G|--6-6-6---8-------------------------------------|
D|--6-6-6---8-------------------------------------|
A|--4-4-4---6-------------------------------------|
E|------------------------------------------------|
 
      “I'll see you again…”     
E|--4-4-4---6------7-9-7-------7-9-7--------------|
B|--5-5-5---7----7-------7---7-------7------------|
G|--6-6-6---8-------------------------------------|
D|--6-6-6---8-------------------------------------|
A|--4-4-4---6-------------------------------------|
E|------------------------------------------------|
 
    C#m    D#m    B      G#m    C#m    D#m
E|--4-4-4--6-6-6--7-7-7--4-4-4--4-4-4--6----------|
B|--5-5-5--7-7-7--7-7-7--4-4-4--5-5-5--7----------|
G|--6-6-6--8-8-8--8-8-8--5-5-5--6-6-6--8----------|
D|--6-6-6--8-8-8--9-9-9--6-6-6--6-6-6--8----------|
A|--4-4-4--6-6-6--9-9-9--6-6-6--4-4-4--6----------|
E|----------------7-7-7--4-4-4--------------------|

Outro:
E|---------------------------------7\------------||
B|---------------------------------7\------------||
G|---------------------------------8\------------||
D|---------------------------------9\------------||
A|--9-9-7-7-6-6-7-7\9-9-7-7-6-6----9\------------||
E|------------------------------9—-7\------------||



Last Bus 
Milburn 

Alright, I've had enough
I want to go home now
Tonight, I've had too much
And I start to talk funny
And when, I've had enough
I say some things I might
Regret, that make me blush
When I wake in the morning

So I'll see you when I see you
Yeah I'll see you again
And if I don't get the chance to at least shake your hand
Then I wish you good luck, hope it all goes to plan so
I'll see you around

Come on, we'll get the bus
If we leave pretty soon now
I can't go to the club
'Cause I've not got much money

So I'll see you when I see you
Yeah I'll see you again
And if I don't get the chance to at least shake your hand
Then I wish you good luck, hope it all goes to plan so
I'll see you around

So I'll see you when I see you
Yeah I'll see you again
And if I don't get the chance to at least shake your hand
Then I wish you good luck, hope it all goes to plan so
I'll see you around 
Добавлено: 21.06.2012
Другие материалы по этой песне:

Страница создана 13.04.2012
http://primanota.ru/milburn/last-bus-chords.htm
Привет, Гость.
Предлагаем пройти революционный курс по гитаре.
Подарок от PrimaNota.Ru, забирай!