PrimaNota.ru - самый крупный в мире бесплатный архив песенных текстов, аккордов, табулатур и нот


Miku Hatsune - Poetaster And The Singing Dolls - таба, видео

Регистрация Запомнить меня
Войти через:  Facebook Google Twitter Vk Yandex Mail.ru

Miku Hatsune - Poetaster And The Singing Dolls - таба, видео

Печатать
Просмотров: 254
-----------------------------------------------------------------------------
Poetaster and the Singing Dolls – Hatsune Miku
-----------------------------------------------------------------------------
Tabbed by: Anthony Uirikun
Email: shirigaki@yahoo.com

This is my first tabbed song...so enjoy. (And email me if there are any mistakes) 
NYA!!!! ;3

Tuning: Drop C (CGCFAD)

(Intro)
D|---------------------------------------------------------------------------|
A|---------------------------------------------------------------------------|
F|---------------------------------------------------------------------------|
C|------------------------------------000-0-0-6------------------------------|
G|------------------------------------000-0-0-6------------------------------|
C|-0-0-0-8-77-0-0-0-3-56-0-0-0-8-77---000-0-0-6------------------------------|

(Verse)
D|---------------------------------------------------------------------------|
A|---------------------------------------------------------------------------|
F|---------------------------------------------------------------------------|
C|-000-0-0-8-77-000-0-0-3-56-000-0-0-8-77-000--3--5--3-5---------------------|
G|-000-0-0-8-77-000-0-0-3-56-000-0-0-8-77-000--3--5--3-5---------------------|
C|-000-0-0-8-77-000-0-0-3-56-000-0-0-8-77-000--3--5--3-5---------------------|

D|---------------------------------------------------------------------------|
A|---------------------------------------------------------------------------|
F|---------------------------------------------------------------------------|
C|-000-0-0-8-77-000-0-0-3-56-000-0-0-8-77-000--3--5-3-3----------------------|
G|-000-0-0-8-77-000-0-0-3-56-000-0-0-8-77-000--3--5-3-3----------------------|
C|-000-0-0-8-77-000-0-0-3-56-000-0-0-8-77-000--3--5-3-3----------------------|

(Filler)
D|------------------------------------------|
A|------------------------------------------|
F|------------------------------------------|
C|111111111111111111111111--5---3---1---0---| *play first part of (Phrase 1) 1st time
G|111111111111111111111111--5---3---1---0---|  and then play second part second time.
C|111111111111111111111111--5---3---1---0---|

(Chorus)
D|---------------------------------------------------------------------------|
A|---------------------------------------------------------------------------|
F|----------------------------------55555555555555555------------------------|
C|0000000000000000-3333333333333333-55555555555555555-5555555555555555-7-6-5-|
G|0000000000000000-3333333333333333-33333333333333333-5555555555555555-7-6-5-|
C|0000000000000000-3333333333333333-------------------5555555555555555-7-6-5-|

(Bridge)
D|---------------------------------------------------------------------------|
A|---------------------------------------------------------------------------|
F|---------------------------------------------------------------------------|
C|-0-0-0-5-6-7-000-0-0-5-6-7-000-0-0-5-6-7-000-0-0-8-7-7---------------------|
G|-0-0-0-5-6-7-000-0-0-5-6-7-000-0-0-5-6-7-000-0-0-8-7-7---------------------|
C|-0-0-0-5-6-7-000-0-0-5-6-7-000-0-0-5-6-7-000-0-0-8-7-7---------------------|


Song Arrangement
- Intro
- Verse
- Filler
- Verse
- Filler
- Chorus
- Bridge
- Verse (play using only C String)
- *drum break*
- Chorus
- Bridge
- Outro (Play the verse using only C String)
Добавлено: 05.07.2012
Другие материалы по этой песне:
  • Аккорды и текст

Страница создана 05.07.2012
http://primanota.ru/miku-hatsune/poetaster-and-the-singing-dolls-chords.htm
Привет, Гость.
Предлагаем пройти революционный курс по гитаре.
Подарок от PrimaNota.Ru, забирай!