PrimaNota.ru - самый крупный в мире бесплатный архив песенных текстов, аккордов, табулатур и нот


Miku Hatsune - Melt - аккорды и текст, видео

Регистрация Запомнить меня
Войти через:  Facebook Google Twitter Vk Yandex Mail.ru

Miku Hatsune - Melt - аккорды и текст, видео

Печатать
Просмотров: 114
Melt
Miku Hatsune
Song: Melt
By: Supercell feat. Hatsune Miku
Tuning: Standard
Chords by: Mark Florence Cruz
Email: cruzmarkflorence@gmail.com

Intro Tabs:
E -2-0---0----|-2-0----0-0h5-2-|-2-0----0------0-1--1s3-------------|
B -----33--33-|-----33---------|-----33---33-3----------------------|
G ------------|----------------|------------------------------------|
D ------------|----------------|------------------------------------|
A ------------|----------------|------------------------------------|
E ------------|----------------|------------------------------------|

Intro:
D     G    A     D
La la la lala la la

D     G    A     D
La la la lala la la

Bm    G    A     D
La la la lala la la

      Bb    C
La La La...ah!


Verse 1:
 D         G
Asa me ga samete

  A         D  A  Bm    G      A
Maasaki ni omoiukabu kimi no koto

D    G      A           D
Omoikitte maegami wo kitta

      A    Bm         G       A
"doushita no?" tte kikaretakute



Refrain:
  Bm        G        D         A   
PINKU no SUKAATO ohana no kamikazari

   Bm        A  
Sashite dekakeru no

      G             A            
Kyou no watashi wa kawaii no yo!



Chorus:
G                  D           A
MERUTO tokete shimaisou

        Bm        G      D  A
Suki da nante zettai ni ienai dakedo

G         D        A
MERUTO me mo awaserarenai

       Bm          A        G
Koi ni koi nante shinai wa watashi

 Bm     G       A
Datte kimi no koto ga... suki nano



(Play Intro)



Verse 2:
D         G         A                
Tenki yohou ga USO wo tsuita

    D   A  Bm     G    A
Doshaburi no ame ga furu

D               G          A            D    A  Bm                                 
Kaban ni ireta mama no ORITATAMI kasa ureshikunai

      G         A
Tameiki wo tsuita sonna toki



Refrain:
   Bm       G      D          A
"shouganai kara haitte yaru" nante

   Bm       A          G
Tonari ni iru kimi ga warau

          A
Koi ni ochiru oto ga shita



Chorus:
 G                  D          A
MERUTO iki ga tsumarisou

          Bm        G         D  A         
Kimi ni fureteru migite ga furueru

      G                 D        A    
Takanaru mune hanbun kono kasa

        Bm         A          G
Te wo nobaseba todoku kyori doushiyou!

  Bm       G      A
Omoi yo todoke kimi ni



Coda:
       Bm     G      D      A  
Onegai jikan wo tomete nakisou nano

  Bm   G      A                    
Demo ureshikute shinde shimau wa!



Instrumental:
G | D | Bm | A
G | D | Bm | Asus A Asus A 


   G     A      D        A       G      A        Bb  C                           
E -2-0---0----|-2-0----0-0h5-2-|-2-0----0------0-1--1s3-------------|
B -----33--33-|-----33---------|-----33---33-3----------------------|
G ------------|----------------|------------------------------------|
D ------------|----------------|------------------------------------|
A ------------|----------------|------------------------------------|
E ------------|----------------|------------------------------------|


Chorus:
 G                 D           A
MERUTO eki ni tsuite shimau

     Bm       G       D   A                          
Mou aenai chikakute tooi yo dakara

 G                      D              A
MERUTO te wo tsunaide arukitai!

      Bm       A          G
Mou BAIBAI shinakucha ikenai no?

  Bm        G             A   
Ima sugu watashi wo dakishimete!


nante ne



D     G    A     D
La la la lala la la

D     G    A     D
La la la lala la la

Bm    G    A     D
La la la lala la la

      Bb    C      D
La La La...ah! 
Добавлено: 10.06.2016
Другие материалы по этой песне:

Страница создана 17.04.2012
http://primanota.ru/miku-hatsune/melt-chords.htm
Привет, Гость.
Предлагаем пройти революционный курс по гитаре.
Подарок от PrimaNota.Ru, забирай!