PrimaNota.ru - самый крупный в мире бесплатный архив песенных текстов, аккордов, табулатур и нот


Mikky Ekko - Smile - аккорды и текст, таба, видео

Регистрация Запомнить меня
Войти через:  Facebook Google Twitter Vk Yandex Mail.ru

Mikky Ekko - Smile - аккорды и текст, таба, видео

Печатать
Просмотров: 754
Уроки эстрадного вокала в Санкт-Петербурге
Smile
Mikky Ekko
-------------------------------------------------------------------------------
                             Smile - Mikky Ekko
-------------------------------------------------------------------------------
Tabbed by: Alex Heisler

Time Signature: 4/4 (swung)

(in the chorus, verse, interlude)
Bb- 8 beats
Gm- 4 beats
Eb- 4 beats


Intro:

e|-----1-----1-----1-----1-----1-----1-----1-----1---------------------------|
B|---------------------------------------------------------------------------|  
G|--3-----3-----3-----3-----3-----3-----3-----3------------------------------|
D|---------------------------------------------------------------------------|
A|---------------------------------------------------------------------------|
E|---------------------------------------------------------------------------|



Chorus:

Bb                             
Smile, the worst is yet to come
          Gm                      Eb            
We'll be lucky if we ever see the sun
               Bb                               
Got nowhere to go, We can be here for a while
                     Gm           Eb              
But the future is forgiving so smile!


Verse:

 Bb                                           
We're trying so hard to get it all right
    Gm                      Eb                  
But only feel lonely at the end of the night
Bb                                            
 Well I wanna be somewhere 
                                            
Away from this place
Gm                       Eb                     
Somewhere just a little closer to grace


Chorus:

    Bb                                        
So, Smile, the worst is yet to come
         Gm                       Eb           
We'll be lucky if we ever see the sun
               Bb                             
Got nowhere to go, We can be here for a while
                     Gm         Eb              
But the future is forgiving so smile!



Smile!

Interlude:

Bb        Gm    Eb     2x


Verse:

Bb
 Call me a loser

Call me a thief
Gm                            Eb                
 Tell me I'm special when you spit at me
Bb
 But I wanna be lonely

I wanna be loved 
Gm                                   Eb         
 And I want you to hold me like I'm the only one


Chorus:

    Bb                                        
So, Smile, the worst is yet to come
         Gm                       Eb           
We'll be lucky if we ever see the sun
               Bb                             
Got nowhere to go, We can be here for a while
                     Gm         Eb              
But the future is forgiving so smile!



Smile!

Interlude:

Bb        Gm    Eb     2x
    

Yeeeah, So smile!


Bridge:

     Gm                   F                     
Sometime will eventually knock on my door
    Ebsus4                  Eb                       
And tell me I'm not needed around anymore
        Gm                      F               
But you hold me so close at the end of the day
             Ebsus4                       Eb     
That when I'm quiet I can nearly hear him say



Chorus:

Bb                                             
Smile, the worst is yet to come
         Gm                       Eb             
We'll be lucky if we ever see the sun
               Bb                              
Got nowhere to turn, but we got nothing but time
                     Gm                        
But the future is forever 
                 Eb                            
The future is forever
          Bb                                         
So smile!

         Gm        Eb                            
So smile!

         Bb       Gm      Eb                       
So smile!

      Bb                                                                               
Ooooh


Outro:

e|-----1-----1-----1-----1-----1-----1-----1-----1---------------------------|
B|---------------------------------------------------------------------------|   
G|--3-----3-----3-----3-----3-----3-----3-----3------------------------------|
D|---------------------------------------------------------------------------|
A|---------------------------------------------------------------------------|
E|---------------------------------------------------------------------------|
Добавлено: 01.09.2014
Другие материалы по этой песне:
  • Аккорды и текст

Страница создана 01.09.2014
http://primanota.ru/mikky-ekko/smile-chords.htm
Привет, Гость.
Предлагаем пройти революционный курс по гитаре.
Подарок от PrimaNota.Ru, забирай!