PrimaNota.ru - самый крупный в мире бесплатный архив песенных текстов, аккордов, табулатур и нот


Mikey Wax - Twisted Fate - таба, видео

Регистрация Запомнить меня
Войти через:  Facebook Google Twitter Vk Yandex Mail.ru

Mikey Wax - Twisted Fate - таба, видео

Печатать
Просмотров: 169
Twisted Fate - Mikey Wax

Intro/Verse: (Play just G and Dm for intro and add Cm for verse)
   Gm                                 Dm
E ----------------------------------------------------------------------|
B ----------------------------------------6-------6-------6-------6-----|
G -----3-------3-------3----3>5-5---5---7---7---7---7---7---7---7---7---|
D ---0---0---0---0---0---0--------0-------------------------------------|
A ------------------------------------5-------5-------5-------5-------5-|
E -3-------3-------3----------------------------------------------------|

  Cm (x2)

E -----------------------------------|
B -----4-------4-------4-------4-----|
G ---5---5---5---5---5---5---5---5---|
D -----------------------------------|
A -3-------3-------3-------3-------3-|
E -----------------------------------|


Gm          Dm
The whisper in my mind
Cm
Left me numb
Cm
Outside of time
Gm                Dm                  Cm
The weight of the words was more than I could hold
Gm       Dm
I opened up my eyes
Cm
To see the sorrow
Cm
In disguise
Gm              Dm                Cm
The rest of the day was out of my control
Gm                 Dm               Cm
It was the saddest story that I never told

Chorus: (Play full chords)

Gm                 Dm
And they taught us not to cry
             Cm                       Gm
But there is dust in the air that they couldn't hide
  Gm              Dm          D
The feeling that day was so unusual
   Gm                     Dm
If I had a way I would've twisted fate
         Cm                                  Gm
If I was more than just a prophet I would have saved the day
     Gm       Dm            D
But I somehow hold myself responsible


I took one moments rest
When time rushed in
To catch its breath
The weight of the world was more than I could hold
If this is what it seems
It's all too real
Just like a dream
A dream you do not really have control
It was the saddest story that I never told

And they taught us not to cry
But there is dust in the air that they couldn't hide
The feeling that day was so unusual
If I had a way I would've twisted fate
If I was more than just a prophet I would have saved the day
But I somehow hold myself responsible

And the lights went out and it started to pour
All the pieces of her dreams shattered on the floor
The feeling that day was so unusual
If I had a way I would've twisted fate
If I was more than just a prophet I would have saved the day
But I somehow hold myself responsible

The whisper in my mind
Left me numb
Outside of time
It was the saddest story that I never told

Beautiful song by Mikey Wax!

http://www.mikeywax.com/
Добавлено: 03.06.2012
Другие материалы по этой песне:
  • Аккорды и текст

Страница создана 03.06.2012
http://primanota.ru/mikey-wax/twisted-fate-chords.htm
Привет, Гость.
Предлагаем пройти революционный курс по гитаре.
Подарок от PrimaNota.Ru, забирай!