PrimaNota.ru - самый крупный в мире бесплатный архив песенных текстов, аккордов, табулатур и нот


Mike Stuart Span - Dear - бас-таба, видео

Регистрация Запомнить меня
Войти через:  Facebook Google Twitter Vk Yandex Mail.ru

Mike Stuart Span - Dear - бас-таба, видео

Печатать
Просмотров: 23
Tabbed by: 6METAL6BASSIST6
E-mail: petergriffinav@gmail.com

Tuning: EADG

G|----------------------------------------------------------------|
D|----------------5-------0---2---3-------3---3---5---3---2---0---|
A|3-------3---3-------3-------------------------------------------|
E|----------------------------------------------------------------|

G|----------------------------------------------------------------|
D|----------------5---3---2---0-------------------5-------0---2---|
A|3-------3---3-------------------3-------3---3-------3-----------|
E|----------------------------------------------------------------|

G|----------------------------------------------------------------|
D|3-------3---3---5---3---2---0---3-------3---3---5---3---2---0---|
A|----------------------------------------------------------------|
E|----------------------------------------------------------------|

G|----------------------------------------------------------------|
D|3-------3---3---5---3---2---0-------------------5-------0---2---|
A|--------------------------------3-------3---3-------3-----------|
E|----------------------------------------------------------------|

0:20

G|--------5---2-----------7---4-----------5---2-----------7---4---|
D|3---3-----------5---5-----------3---3-----------5---5-----------|
A|----------------------------------------------------------------|
E|----------------------------------------------------------------|

G|--------5---2-----------7---------------------------------------|
D|3---3-----------5---5-------5-------5---3---2---0-------0---2---|
A|--------------------------------3-------------------3-----------|
E|----------------------------------------------------------------|

G|----2---5---2-----------------------5---3---2-------------------|
D|3---------------5---3---2---0---3---------------5---3---2---0---|
A|----------------------------------------------------------------|
E|----------------------------------------------------------------|

G|----------------------------------------------------------------|
D|----------------5---3---2---0-------------------5---3---2---0---|
A|3-----------3-------------------3-----------3-------------------|
E|----------------------------------------------------------------|

0:37

G|----------------------------------------------------------------|
D|----------------5-------0---2---3-------3---3---5---3---2---0---|
A|3-----------3-------3-------------------------------------------|
E|----------------------------------------------------------------|

G|----------------------------------------------------------------|
D|----------------5---3---2---0-------------------5-------0---2---|
A|3-------3---3-------------------3-------3---3-------3-----------|
E|----------------------------------------------------------------|

G|----------------------------------------------------------------|
D|3-------3---3---5---3---2---0---3-------3---3---5---3---2---0---|
A|----------------------------------------------------------------|
E|----------------------------------------------------------------|

G|----------------------------------------------------------------|
D|3-------3---3---5---3---2---0-------------------5-------0---2---|
A|--------------------------------3-------3---3-------3-----------|
E|----------------------------------------------------------------|

0:56

G|--------5---2-----------7---4-----------5---2-----------7---4---|
D|3---3-----------5---5-----------3---3-----------5---5-----------|
A|----------------------------------------------------------------|
E|----------------------------------------------------------------|

G|--------5---2-----------7---------------------------------------|
D|3---3-----------5---5-------5-------5---3---2---0-------0---2---|
A|--------------------------------3-------------------3-----------|
E|----------------------------------------------------------------|

G|----2---5---2-----------------------5---3---2-------------------|
D|3---------------5---3---2---0---3---------------5---3---2---0---|
A|----------------------------------------------------------------|
E|----------------------------------------------------------------|

G|----------------------------------------------------------------|
D|----------------5---3---2---0-------------------5-------0---2---|
A|3-----------3-------------------3-----------3-------3-----------|
E|----------------------------------------------------------------|

1:15

G|----------------------------------------------------------------|
D|3-----------3---5---3---2---0-------------------5-------0---2---|
A|--------------------------------3-----------3-------3-----------|
E|----------------------------------------------------------------|

G|------------------------2---4---5-----------5---5---3---2-------|
D|3-----------3---5-------------------------------------------5---|
A|----------------------------------------------------------------|
E|----------------------------------------------------------------|

G|----------------------------------------------------------------|
D|3-----------3---5---3---2---0-----------------------5-------0---|
A|--------------------------------3-----------3---3-------3-------|
E|----------------------------------------------------------------|

G|----------------------------------------------------------------|
D|2-----------2---4-----------4---5-----------5---5-----------5---|
A|----------------------------------------------------------------|
E|----------------------------------------------------------------|

G|--------------------------------|
D|5-----------5---5---3---2---0---|
A|--------------------------------|
E|--------------------------------|

1:36

G|----------------------------------------------------------------|
D|----------------5-------0---2---3-------3---3---5---3---2---0---|
A|3-----------3-------3-------------------------------------------|
E|----------------------------------------------------------------|

G|----------------------------------------------------------------|
D|----------------5---3---2---0-------------------5-------0---2---|
A|3-------3---3-------------------3-------3---3-------3-----------|
E|----------------------------------------------------------------|

G|----------------------------------------------------------------|
D|3-------3---3---5---3---2---0---3-------3---3---5---3---2---0---|
A|----------------------------------------------------------------|
E|----------------------------------------------------------------|

G|----------------------------------------------------------------|
D|3-------3---3---5---3---2---0-------------------5-------0---2---|
A|--------------------------------3-------3---3-------3-----------|
E|----------------------------------------------------------------|

1:54

G|--------5---2-----------7---4-----------5---2-----------7---4---|
D|3---3-----------5---5-----------3---3-----------5---5-----------|
A|----------------------------------------------------------------|
E|----------------------------------------------------------------|

G|--------5---2-----------7---------------------------------------|
D|3---3-----------5---5-------5-------5---3---2---0-------0---2---|
A|--------------------------------3-------------------3-----------|
E|----------------------------------------------------------------|

G|----2---5---2-----------------------5---3---2-------------------|
D|3---------------5---3---2---0---3---------------5-------0---2---|
A|----------------------------------------------------3-----------|
E|----------------------------------------------------------------|

2:07

G|--------5---2-----------7---4-----------5---2-----------7---4---|
D|3---3-----------5---5-----------3---3-----------5---5-----------|
A|----------------------------------------------------------------|
E|----------------------------------------------------------------|

G|--------5---2-----------7---------------------------------------|
D|3---3-----------5---5-------5-------5---3---2---0-------0---2---|
A|--------------------------------3-------------------3-----------|
E|----------------------------------------------------------------|

G|----2---5---2-----------------------5---3---2-------------------|
D|3---------------5---3---2---0---3---------------5---3---2---0---| x3 to fadeout.
A|----------------------------------------------------------------|
E|----------------------------------------------------------------|
Добавлено: 01.06.2016
Другие материалы по этой песне:
  • Аккорды и текст

Страница создана 01.06.2016
http://primanota.ru/mike-stuart-span/dear-chords.htm
Привет, Гость.
Предлагаем пройти революционный курс по гитаре.
Подарок от PrimaNota.Ru, забирай!