PrimaNota.ru - самый крупный в мире бесплатный архив песенных текстов, аккордов, табулатур и нот


Mike Stern - Wing And A Prayer - таба, видео

Регистрация Запомнить меня
Войти через:  Facebook Google Twitter Vk Yandex Mail.ru

Mike Stern - Wing And A Prayer - таба, видео

Печатать
Просмотров: 153
song: a wing and a prayer
artist: mike stern
album: between the lines (1996)
arranged by ritchie ploder, vienna - austria dezember 2000.
email:funkhead@lion.cc 

i arranged this for fingerstyle but there are ways to play it with a pick too.
this is the songs intro played by mike without band. for i transcribed this by heart
without listening to the record u'd have to check the record for the songs form - but u should be able to play the whole intro with this transcribtion.



  1   2   3   4   1   2   3   4    1   2   3   4   1   2   3   4   
E ---------------------------------0-------2-----------------------|
B --------------------0---1---0--------------------3---------------|
G ---------------------------------0-------2-------2-------0-------|
D --------------------0---2---0------------------------------------|
A ---------------------------------3-------3-------2---------------|
E ------------0-2-3------------------------------------------------|

  1   2   3   4   1   2   3   4    1   2   3   4   1   2   3   4   
E ------------------------0--------------------0-------------------|
B 1-------0-------------------0------------------------------------|
G 0----------------------------------------------------------------|
D 3-------------------2--------------------2-----------------------|
A -----------------------------------------------------------------|
E ----------------0--------------------------------------------0-2-|
                                                                                   
  1   2   3   4   1   2   3   4    1   2   3   4   1   2   3  slide   
E ----------------0-------2----------------------------------------|
B ----0---1---0-------------------3----------------3-----------5~3-|
G ----------------0-------2-------2--------0-------0---------------|
D ----0---2---0----------------------------------------------------|
A ----------------3-------3-------2----------------1---------------|
E 3----------------------------------------------------------------|

  1   2   3   4   1   2   3   4    1   2   3   4   1   2   3   4   
E ------------------------0---2----3-------2---------------0---2---|
B 1-------------------1------------0-------------------1-----------|
G --------------------0--------------------------------0-----------|
D --------------------2------------1-------------------2-----------|
A ----------------0--------------------------------0---------------|
E -----------------------------------------------------------------|

  1   2   3   4   1 slide 3   4    1   2   3   4   1  ho both notes   
E 5-------3----------~3---1---0-----------------------*1---0-------|
B -----------------------------------------3-------------------3---|
G 5-------4----------~3---2---0-----------------------*2---0-------|
D 1-------2-------0--------------------3-----------------------3---|
A ---------------------------------1-----------1---0---------------|
E -----------------------------------------------------------------|

  1   2   3   4   1   2   3   4    1  sl.  3 po    1    2    3    4   
E ------------3----------------------------------------------------|
B --------1---------------1-----------~3-----1~0-------------------|
G ----0---0-----------0---0------------------------2-------0-------|
D ------------------------------------~4-----2~0-------------------|
A -------------------------------------------------4---------------|
E 1--------------------------------0-------------------------------|

  1   2   3po 4   1   2   3ho 4    1   2   3   4       
E -------------------------------------------------|
B -------------------------------------------------|
G 2---------4~2---0---------0----------------------|
D 0------------------------------------------------|
A ----------------3--------~3----------------------|
E ---------------------------------------------0-2-|

--band......


     
Добавлено: 28.06.2013
Вам также может быть интересно:
Другие материалы по этой песне:
  • Аккорды и текст

Страница создана 28.06.2013
http://primanota.ru/mike-stern/wing-and-a-prayer-chords.htm
Привет, Гость.
Предлагаем пройти революционный курс по гитаре.
Подарок от PrimaNota.Ru, забирай!